Reel Big Fish Tabs

Slow Down

2 versions

TAB

            Slow Down
By Reel Big Fish

  Slow Down.....
e-1---3---6---8---|
b-1---3---6---8---|
g-2---4---7---9---|
d-3---5---8---10--|
a-3---5---8---10--|
e-1---3---6---8---|

Little Horn Part After Chorus
e-1-1--1-1-0-0-0-0-|
b-1-1--1-1-0-0-0-0-|
g-2-2--2-2-1-1-1-1-|
d-3-3--3-3-2-2-2-2-|
a-3-3--3-3-2-2-2-2-|
e-1-1--1-1-0-0-0-0-|

You've Got To Make It Stop....
e-5---6-|
b-7---6-|
g-7---7-|
d-7---8-|
a-5---8-|
e-5---6-|

When The Solo Comes around i like to mess around on the 2 high strings (in key of 
and it sounds good, so i will give some frets to resort to.

e-1-3-5-6-8-10-------|
b--------------1-3-5-|


Jeremy Rees
:D    

Added On December 16th, 2013

SHARE

Comments

blog comments powered by Disqus

VERSIONS

ADVERTISEMENT