Reel Big Fish Tabs

The New Version Of You

3 versions

TAB

            Intro
e------------------------|
b------------------------|
g----------10-9----------|
d-5--5--7--10-9--10-9----|
a-5--5--7--8--7--10-9----|
e-3--3--5--------8--7----|

Ska Riff (play each 4 times)
e-5--2--3--2--|
b-5--3--3--3--|
g-6--2--4--2--|
d-7--4--5--4--|
a-------------|
e-------------|

Pre-Chorus
e-------------|
b-------------|
g-------------|
d-9--5--7--7--|
a-9--5--7--7--|
e-7--3--5--5--|

Chorus (don't up-stroke)
Pt. 1               Pt. 2
e-5--5--2--4-      e------------------|
b-5--5--3--5-      b------------------|
g-6--6--2--4-      g------------------|
d-7--7--4--6-      d-7--4--33-33-xx-2-|
a------------      a-7--4--33-33-xx-2-|
e------------      e-5--2--11-11-xx-0-|

Ska Riff x 6

Pre-Chorus x 2

Chorus

Intro x4

Bridge (palm mute)
e------------|
b------------|
g------------|
d-4--5--7--7-|
a-4--5--7--7-|
e-2--3--5--5-|

Pre-chorus

Chorus
Chorus(play in power chords)

Intro

Thats the whole song! YES! I DID IT! :P    

Added On December 16th, 2013

SHARE

Comments

blog comments powered by Disqus

VERSIONS

ADVERTISEMENT