Reel Big Fish Tabs

Til I Hit The Ground

2 versions

TAB

            Intro
|-7777-10p8p7-----------------------------------------------------------|
|-------------10-8------------------------------------------------------|
|------------------9----9-7-7-------------------------------------------|(X2)
|--------------------10-------10p9----9999-101010-9----9999-101010-9----|
|----------------------------------10---------------10---------------10-|
|-----------------------------------------------------------------------|

Chorus
|--------------------------|    |-------------|
|--------------------------|    |-88888-10-88-|
|----4-77-5-4--22-4-55-4-2-|(X6)|-------------|
|-55-----------------------|then|-------------|
|--------------------------|    |-------------|
|--------------------------|    |-------------|

1st Verse                                     just downstrokes
|--------------------------|    |------------------3-3-3-----1010---88-|
|--------------------------|    |------------------3-3-3--/8------8----|
|--------------------------|    |------------------4-4-4---------------|
|--------------------------|then|------------------5-5-5---------------|
|----2-33-2-0-(x3)---------|    |----2-33-2-0-(X8)---------------------|
|-33---------------3(stop)-|    |-33-----------------------------------|

Chorus
|---------------------------|    |-------------|
|---------------------------|    |-88888-10-88-|
|-----4-77-5-4--22-4-55-4-2-|(X4)|-------------|
|-55------------------------|then|-------------|
|---------------------------|    |-------------|
|---------------------------|    |-------------|

2nd Verse
|------------------|     |------------------3-3-3-----1010---88-|
|------------------|stop.|------------------3-3-3--/8------8----|
|------------------|bass |------------------4-4-4---------------|
|------------------|fill |------------------5-5-5---------------|
|----2-33-2-0-(X4)-|thing|----2-33-2-0-(X8)---------------------|
|-33---------------|then |-33-----------------------------------|


Chorus
|--------------------------|
|--------------------------|
|----4-77-5-4--22-4-55-4-2-|(X4)
|-55-----------------------|
|--------------------------|
|--------------------------|

Intro

Don't play anything for 2 parts of the chorus

Chorus
|--------------------------|    |-------------|
|--------------------------|    |-88888-10-88-|
|----4-77-5-4--22-4-55-4-2-|(X4)|-------------|
|-55-----------------------|then|-------------|
|--------------------------|    |-------------|
|--------------------------|    |-------------|

1st Verse

Chorus
|--------------------------|    |-----------------------------------------|
|--------------------------|    |-----------------------------------------|
|----4-77-5-4--22-4-55-4-2-|(X4)|------11-1414-12-11--99-11-12-12-11-9----|
|-55-----------------------|then|-1212---------------------------------12-|
|--------------------------|    |-----------------------------------------|   
|--------------------------|    |-----------------------------------------|
|--------------------------|    |-----------------------------------------|

|---------------------------------------|    |----------------------------|
|---------------------------------------|    |----------------------------|
|------11-1414-12-11-99-11-1212-11-9----|stop|----4-77-5-4--22-4-55-4-2---|
|-1212-------------------------------12-|then|-55-----------------------5-|
|---------------------------------------|    |----------------------------|
|---------------------------------------|    |----------------------------|

|--------------------------|    |-----|
|--------------------------|    |-----|
|----4-77-5-4--22-4-55-4-2-|    |-----|
|-55-----------------------|stop|-4-5-|
|--------------------------|then|-----|
|--------------------------|    |-----|    

Added On December 16th, 2013

SHARE

Comments

blog comments powered by Disqus

VERSIONS

ADVERTISEMENT