Reel Big Fish Tabs

What Are Friends For

2 versions

TAB

            ______________________________________
-Artist      -    Reel Big Fish
-Song        -    What Are Friends For
-Album       -    Cheer Up

Intro Ska Chords (x4)

e|------x-5-x-5-x-3--3-3-3|
b|-5\---x-5-x-5-x-3--3-3-3|
g|-5\---x-5-x-5-x-3--3-3-3|  (continues through
d|-5\---------------------|   intro solo)
a|------------------------|
e|------------------------|

Intro Solo (x1)

e|---------------------------------------------|
b|----------6-6-6-8----------------------------|
g|--9-9-9-9---------7bu7-5-------5-5--5-5-5----|
d|---------------------------5h7---------------|
a|---------------------------------------------|
e|---------------------------------------------|

e|-------------------------------------------|
b|----------6-6-8----------------------------|
g|--9-9-9-9-------7bu7-5-------5-5--5-5-5----|
d|-------------------------5h7---------------|
a|-------------------------------------------|
e|-------------------------------------------|

Verse

e|------x-5-x-5-x-3--3-3-3|     e|------5-5-------3---|     e|-------------|
b|-5\---x-5-x-5-x-3--3-3-3|     b|--5\--5-5--5-5--3---|     b|-------------|
g|-5\---x-5-x-5-x-3--3-3-3|(x2) g|--5\--5-5--5-5--3---|     g|-----5-5--5-5|
d|-5\---------------------|     d|--5\-------5-5------|(x1) d|-5h7---------|
a|------------------------|     a|--------------------|     a|-------------|
e|------------------------|     e|--------------------|     e|-------------|

e|------x-5-x-5-x-3--3-3-3|     e|------5-5-------3---|
b|-5\---x-5-x-5-x-3--3-3-3|     b|--5\--5-5--5-5--3---|
g|-5\---x-5-x-5-x-3--3-3-3|(x2) g|--5\--5-5--5-5--3---|
d|-5\---------------------|     d|--5\-------5-5------|(x1)
a|------------------------|     a|--------------------|
e|------------------------|     e|--------------------|


Chorus

e|-5-5-x-5---5-5-x-5-|
b|-5-5-x-5---6-6-x-6-|
g|-5-5-x-5---5-5-x-5-| I'm sorry, this is only half,
d|-5-5-x-5---5-5-x-5-| can't make out the other part.
a|-------------------| You could just repeat this,
e|-------------------| it'll sound fine.

Solo

e|----------------------------------------------8-----------------|
b|------------------------------8-8/10-8~---8-8---8-6-5-6/8-------|
g|-10-9-10-9-10-9-10-9-10-9-10------------------------------5-----|
d|----------------------------------------------------------------|
a|----------------------------------------------------------------|
e|----------------------------------------------------------------|

e|-------------------------------------------------------------|
b|-------------5h6-6/8-6-5-------------------------------------|
g|---------5h7-------------5~--10-9-10-9-10-9-10-9-12-10-9-----|
d|-----5h7-------------------------------------------------10--|
a|-5h7---------------------------------------------------------|
e|-------------------------------------------------------------|

e|---------------15bu-15------------------------------------|
b|-----------------------15bu-15-13----------13-15bu-15-13--|
g|-/9-8-9-8-9~----------------------15-12-14----------------|
d|----------------------------------------------------------|
a|----------------------------------------------------------|
e|----------------------------------------------------------|

e|-------------------------------------------------|
b|-15bu-15-15bu-15-15bu-15-15bu15-13~~-------------|
g|-------------------------------------------------|
d|-------------------------------------------------|
a|-------------------------------------------------|
e|-------------------------------------------------|

That's all of it.
This is my first tab. Lolz. XD
Rate it? =D


Steven Goody
----------------------------------------------------------------------------    

Added On December 16th, 2013

SHARE

Comments

blog comments powered by Disqus

VERSIONS

ADVERTISEMENT