TAB

            Eat Steak Tab by Reverend Horton Heat


The Reverend Horton Heat

----------------

Eat Steak

----------------

intro
e|----------------------------------------------------------|
B|----------------------------------------------------------|
G|----------------------------------------------------------|
D|--------------1-1--2--3--4-4-2-0h1p0----2-----------------|
A|-----0--1--2-------------------------2----4-2-4-2---------|
E|--4------------------------------------------------3b-0---|


e|----------------------------------------------------------|
B|----------------------------------------------------------|
G|----------------------------------------------------------|
D|-------1--------------------------------------------------|
A|-2--4-----------------------------------------------------|
E|----------------------------------------------------------|


The verse is pretty much just E major strummed with alternating bass.


Verse
e|-------------------------------------------------------------|
B|-------------------------------------------------------------|
G|---1-1---1-1---1-1---1-1---1-1---1-1-------1-----------------|
D|---2-2---2-2---2-2---2-2---2-2---2-2---1-1-2-----------------|
A|---2-2-2-2-2---2-2-2-2-2---2-2-2-2-2---2-2-2-----------------|
E|-0-----------0-----------0-----------0-----------------------|


haven't got the solo mastered just yet...    

Added On December 5th, 2013

SHARE

Comments

blog comments powered by Disqus

ADVERTISEMENT