Reverie Sound Revue Tabs

The Leisure Lost

1 versions

TAB

            -----------------------------------------------------------------------------
                     THE LEISURE LOST – Reverie Sound Revue
-----------------------------------------------------------------------------
Tabbed by: Travis G
Email: tg_435@hotmail.com

Tuning:EADGbe

Straightforward. He does a little bit of fingerpicking stuff during the whole note 
chords sometimes. I’m fairly sure about the chords but lemme know if anything sounds off. 
This tab is based off of this video: http://vimeo.com/channels/reveriesoundrevue/5741198

Verse (“Lead on and on and on…”)
E ||------------|------------|---------------------|------------|
B ||---3--------|---2--------|---7-----------------|---7--------|
G ||--(0)-------|---1--------|---6-----------------|-----6------|
D ||-------4----|-------2----|-------7-------------|-------7—---|
A ||---2--------|------------|---------------------|------------|
E ||---3--------|---2--------|---7------------7----|------------|

|-----------|-----------|---------------------|-------------------|
|---5-------|---4-------|---12----------------|---12---------9----|
|---6-------|---4-------|-------9-------------|------9------------|
|------7----|------4----|---------------------|--------9----------|
|-----------|-----------|---------------------|-------------------|
|---5-------|---4-------|---9------------9----|--------------9----|

Chorus  (“Your curious karma…”) – watch the video to get the timing, (10) on first time only

||-------------------|--------------------------||
||-------------------|-------------10-----------||
||o--11--------------|--9----------------------o||  Play 4 times
||o------11----------|-----11------------------o||
||-------------------|--------------------------||
||--(10)-----10-10---|--------10---------10-----||

After Chorus A (“The leisure lost…”) – play each chord for two bars

|-------|-------|-------|
|-------|-------|--7----|
|--8----|--6----|--9----|
|--9----|--7----|--9----|
|--7----|--5----|-------|
|--9----|--7----|--9----|

After Chorus B – play each chord for two bars

|-------|-------|------|
|--9----|-------|--7---|
|--8----|--6----|--9---|
|--9----|--7----|--9---|
|-------|--5----|------|
|--9----|--7----|--9---|

|--2----|---------------------|
|--3----|--------5------------|
|--4----|------7--------------|
|--2----|----7----------------|
|--2----|---------------------|
|--3----|--7------------------|

Outro
|-----------------------|--------------------------|
|------------3----------|--------------------------|
|---------------4-------|------------6-------------|
|-----------------------|---------------7----------|
|-----------------------|--------------------------|
|--3------3-------------|--5------5----------------|

|-----------------------|-------------------------||
|-----------------------|-------------------------||
|------------6----------|------------4------------||
|---------------7-------|---------------2---------||
|--5------5-------------|-------------------------||
|-----------------------|--4------4---------------||

And end on 322432


Order:
Verse x2
Chorus
After Chorus A
Verse x2
Chorus
After Chorus A
Verse
Chorus
Play first chord of After Chorus B
Verse
After Chorus B
Outro x8    

Added On December 16th, 2013

SHARE

Comments

blog comments powered by Disqus

ADVERTISEMENT