Rise Against Tabs

1000 Good Intentions Intro

1 versions

TAB

            1000 Good Intentions Tab by Rise Against


                           RISE AGAINST
                      1000 GOOD INTENTIONS


STANDARD TUNING
EADGBe


-------------------------------|
-------------------------------|
-----99----99----9-------------|
-----99----99----9-------------|
-----77----77----7-777-55------|
--00----00----00---------------|


---------------------------------|
---------------------------------|
-----99----99----9---------------|
-----99----99----9---------------|
-----77----77----7-555-99--------|
--00----00----00-----------------|

thats it
later    

Added On December 5th, 2013

SHARE

Comments

blog comments powered by Disqus

ADVERTISEMENT