Rise Against Tabs

About Damn Time

1 versions

TAB

            -------------------------------------------------------------------------------
                             ABOUT DAMN TIME - RISE AGAINST
-------------------------------------------------------------------------------
Tabbed by: Emil
E-mail: -
Youtube: https://www.youtube.com/user/19MusicMaker96

Tuning: half step down

INTRO (2x)

e|-------------------------------------------------------------------------|
B|-------------------------------------------------------------------------|
G|---6-----5------8----- 3-------------------------------------------------|
D|--8-----6------6------4--------------------------------------------------|
A|-------------------------------------------------------------------------|
E|-------------------------------------------------------------------------|


VERSE PART 1 (2x)                                     2nd time end on: (let ring)

e|-------------------------------------------------------------------------------------|
B|-------------------------------------------------------------------------------------|
G|--333--1--33--6 ---6-8----333--1--33--6---6-8-----------------------3----------------|
D|--333--1--33--6 6--6-8----333--1--33--6-6-6-8-----------------------3----------------|
A|--111--1--11--4 6--4-6----111--1--11--4-6-4-6-----------------------1----------------|
E|--------------- 4-----------------------4--------------------------------------------|


VERSE PART 2 (start at 00:38)

e|-----------------------------------------------------------------|
B|-----------------------------------------------------------------|
G|--6---6-8---------3---------3---------3---------------5-6-8-6-5--|
D|--6-6-6-8----4----3----4----3----4----3----6--------8------------|
A|--4-6-4-6----4----1----4----1----4----1----6---------------------|
E|----4--------2---------2---------2---------4---------------------|


CHORUS (2x)

e|------------------------------------------------------------------------------------|
B|------------------------------------------------------------------------------------|
G|-------3----6--------------3--------------------------------------------------------|
D|--4----3----6----6----4----3----6---------------------------------------------------|
A|--4----1----4----6----4----1----6---------------------------------------------------|
E|--2--------------4----2---------4---------------------------------------------------|


BREAK 1

e|--8---------11------------------------------------------------------------------|
B|-------9----------11------------------------------------------------------------|
G|--------------------------------------------------------------------------------|
D|--------------------------------------------------------------------------------|
A|--------------------------------------------------------------------------------|
E|--------------------------------------------------------------------------------|


[ Start with this, 1:25 ] Continue: VERSE PART 1 (1x)

e|---------------------------------------------------------------------------------|
B|---------------------------------------------------------------------------------|
G|--6---6-8------------------------------------------------------------------------|
D|--6-6-6-8------------------------------------------------------------------------|
A|--4-6-4-6------------------------------------------------------------------------|
E|----4----------------------------------------------------------------------------|


VERSE PART 2

CHORUS


BREAK 2

e|--------------------------------------------------------------------------------------|
B|--------------------------------------------------------------------------------------|
G|----6----10--8--6------6---10--8------------------------------------------------------|
D|--8---8--------------8---8-------8----------------------------------------------------|
A|--------------------------------------------------------------------------------------|
E|--------------------------------------------------------------------------------------|


BRIDGE (??)

e|----------------------------------------------------------------------------|
B|----------------------------------------------------------------------------|
G|--333--666-------333----333--666-------333----------------------------------|
D|--333--666--666--333----333--666--666--333----4--------6--------4--------6--|
A|--111--444--666--111----111--444--666--111----4--------6--------4--------6--|
E|------------444-------------------444---------2--------4--------2--------6--|


CHORUS (2x)

************************************

************************************    

Added On April 24th, 2015

SHARE

Comments

blog comments powered by Disqus

ADVERTISEMENT