Rise Against Tabs

Any Way You Want It Solo

1 versions

TAB

            Any Way You Want It Tab by Rise Against


tabber:Andrew
tuning:Standard

e----------------------------------------------------------------------------|
D----------------------------------------------------------------------------|
G--7/9-9-9-9-7-5-7-9-9-7-----------------------------------------------------|
B----------------------------------------------------------------------------|
A----------------------------------------------------------------------------|
E----------------------------------------------------------------------------|

After that i think you slide down the fret  but i 'm not sure listen to the song!

then....
e----------------------------------------------------------------------------|
D----------------------------------------------------------------------------|
G--5-7-5/9-7-5-7-5-4-0--04-5-7-5/9-7-5-0-------------------------------------|
B----------------------------------------------------------------------------|
A----------------------------------------------------------------------------|
E----------------------------------------------------------------------------|

Special thanks to Aderin with this one.  Unknown Element ROCKS!Anyway You Want It Tab by Rise Against


|------------------|--------------------|
|--9^-9^-9^-9^--7~-|-7-9-9^--9p7--9p7~--|
|------------------|--------------------|
|------------------|--------------------|
|------------------|--------------------|
|------------------|--------------------|

|---------------------------------------------------|
|--9p7----------------------------------------------|
|------8-6-8-6--------------------------------------|
|--------------8-6-8-6-------6----------------------|
|----------------------8-6-8----8-6-8-6-------------|
|---------------------------------------7-10-7/5~---|

|------------------------------------------------------|
|-------7-9-7-9^--9-7-9^-9-7-------7-9-7-9--9^-9-7-----|
|---7-9----------------------7~--9-----------------7~--|
|-9----------------------------------------------------|
|------------------------------------------------------|
|------------------------------------------------------|

Email me if theres any mistakes at mikey_w_@hotmail.com    

Added On December 5th, 2013

SHARE

Comments

blog comments powered by Disqus

ADVERTISEMENT