Rise Against Tabs

But Tonight We Dance

2 versions

TAB

            Artist:Rise Against
Song:But Tonight We Dance
Tabbed by: Dan

This is song is in Drop D.

Verse x2
Guitar 1
E|-----------------------------------------------------------------|
B|-----------------------------------------------------------------|
G|-----------------------------------------------------------------|
D|-----------------------------------------------------------------|
A|-6-6-6-6-6-6-6-6-7-7-7-7-7-7-7-7-4-4-4-4-4-4-4-4-6-6-6-6-6-6-6-6-|
D|-6-6-6-6-6-6-6-6-6-6-6-6-6-6-6-6-4-4-4-4-4-4-4-4-6-6-6-6-6-6-6-6-|

G|-----------------------------------------------------------------|
D|-----------------------------------------------------------------|
A|-2-2-2-2-2-2-2-2-4-4-4-4-4-4-4-4-1-1-1-1-1-1-1-1-6-6-6-6-6-6-6-6-|
D|-2-2-2-2-2-2-2-2-4-4-4-4-4-4-4-4-1-1-1-1-1-1-1-1-6-6-6-6-6-6-6-6-|

Chorus
Guitar 1
E|-----------------------------------------------------------------|
B|-----------------------------------------------------------------|
G|-----------------------------------------------------------------|
D|-2-2-2-2-2-2-2-2-4-4-4-4-4-4-4-4-1-1-1-1-1-1-1-1-6-6-6-6-6-6-6-6-| x2
A|-2-2-2-2-2-2-2-2-4-4-4-4-4-4-4-4-1-1-1-1-1-1-1-1-6-6-6-6-6-6-6-6-|
D|-2-2-2-2-2-2-2-2-4-4-4-4-4-4-4-4-1-1-1-1-1-1-1-1-6-6-6-6-6-6-6-6-|

Chorus (cont.)
Guitar 1
E|-----------------------------------------------------------------|
B|-----------------------------------------------------------------|
G|-----------------------------------------------------------------|
D|-2-2-2-2-2-2-2-2-4-4-4-4-4-4-4-4-1-1-1-1-1-1-1-1-6-6-6-6-6-6-6-6-|
A|-2-2-2-2-2-2-2-2-4-4-4-4-4-4-4-4-1-1-1-1-1-1-1-1-6-6-6-6-6-6-6-6-|
D|-2-2-2-2-2-2-2-2-4-4-4-4-4-4-4-4-1-1-1-1-1-1-1-1-6-6-6-6-6-6-6-6-|

Guitar 2
E|---------------------------------6-6-6-6-6-6-6-6-----------------|
B|-9-9-9-9-9-9-9-9-11111111111111117-7-7-7-7-7-7-7-2-2-2-4-4-4-2-4-|
G|---------------------------------8-8-8-8-8-8-8-8-1-1-1-1-1-1-1-1-|
D|-9-9-9-9-9-9-9-9-11111111111111118-8-8-8-8-8-8-8-1-1-1-1-1-1-1-1-|
A|-7-7-7-7-7-7-7-7-9-9-9-9-9-9-9-9-6-6-6-6-6-6-6-6-----------------|
D|-----------------------------------------------------------------|

Guitar 1 (cont.)
E|---------------------------------|
B|---------------------------------|
G|---------------------------------|
D|-2-2-2-2-2-2-2-2-4-4-4-4-4-4-4-4-|
A|-2-2-2-2-2-2-2-2-4-4-4-4-4-4-4-4-|
D|-2-2-2-2-2-2-2-2-4-4-4-4-4-4-4-4-|

Guitar 2 (cont.)
E|----------------------------------|
B|-9-9-9-9-9-9-9-9-1111111111111111-|
G|----------------------------------|
D|-9-9-9-9-9-9-9-9-1111111111111111-|
A|-7-7-7-7-7-7-7-7-9-9-9-9-9-9-9-9--|
D|----------------------------------|

Verse x1
Guitar 1
E|-----------------------------------------------------------------|
B|-----------------------------------------------------------------|
G|-----------------------------------------------------------------|
D|-----------------------------------------------------------------|
A|-6-6-6-6-6-6-6-6-7-7-7-7-7-7-7-7-4-4-4-4-4-4-4-4-6-6-6-6-6-6-6-6-|
D|-6-6-6-6-6-6-6-6-6-6-6-6-6-6-6-6-4-4-4-4-4-4-4-4-6-6-6-6-6-6-6-6-|

G|-----------------------------------------------------------------|
D|-----------------------------------------------------------------|
A|-2-2-2-2-2-2-2-2-4-4-4-4-4-4-4-4-1-1-1-1-1-1-1-1-6-6-6-6-6-6-6-6-|
D|-2-2-2-2-2-2-2-2-4-4-4-4-4-4-4-4-1-1-1-1-1-1-1-1-6-6-6-6-6-6-6-6-|

Guitar 2
E|-16------------|
B|---------------|
G|----(let ring)-|
D|---------------|
A|---------------|
D|---------------|

Verse (cont.)x1
Guitar 1 plays same thing except everything palm muted
Guitar 2
E|-----------------------------------------------------------------|
B|-----------------5-5-5-5-5-5-5-5-7-7-7-7-7-7-7-7-----------------|
G|-1-1-1-1-1-1-1-1-4-4-4-4-4-4-4-4-6-6-6-6-6-6-6-6-1-1-1-1-1-1-1-1-|
D|-1-1-1-1-1-1-1-1---------------------------------1-1-1-1-1-1-1-1-|
A|-----------------------------------------------------------------|
D|-----------------------------------------------------------------|
palm muted.........................................................
E|-----------------------------------------------------------------|
B|-5-5-5-5-5-5-5-5-7-7-7-7-7-7-7-7-4-4-4-4-4-4-4-4-9-9-9-9-9-9-9-9-|
G|-4-4-4-4-4-4-4-4-6-6-6-6-6-6-6-6-3-3-3-3-3-3-3-3-8-8-8-8-8-8-8-8-|
D|-----------------------------------------------------------------|
A|-----------------------------------------------------------------|
D|-----------------------------------------------------------------|
palm muted.........................................................

Chorus
Guitar 1
E|-----------------------------------------------------------------|
B|-----------------------------------------------------------------|
G|-----------------------------------------------------------------|
D|-2-2-2-2-2-2-2-2-4-4-4-4-4-4-4-4-1-1-1-1-1-1-1-1-6-6-6-6-6-6-6-6-| x2
A|-2-2-2-2-2-2-2-2-4-4-4-4-4-4-4-4-1-1-1-1-1-1-1-1-6-6-6-6-6-6-6-6-|
D|-2-2-2-2-2-2-2-2-4-4-4-4-4-4-4-4-1-1-1-1-1-1-1-1-6-6-6-6-6-6-6-6-|

Chorus (cont.)
Guitar 1
E|-----------------------------------------------------------------|
B|-----------------------------------------------------------------|
G|-----------------------------------------------------------------|
D|-2-2-2-2-2-2-2-2-4-4-4-4-4-4-4-4-1-1-1-1-1-1-1-1-6-6-6-6-6-6-6-6-|
A|-2-2-2-2-2-2-2-2-4-4-4-4-4-4-4-4-1-1-1-1-1-1-1-1-6-6-6-6-6-6-6-6-|
D|-2-2-2-2-2-2-2-2-4-4-4-4-4-4-4-4-1-1-1-1-1-1-1-1-6-6-6-6-6-6-6-6-|

Guitar 2
E|---------------------------------6-6-6-6-6-6-6-6-----------------|
B|-9-9-9-9-9-9-9-9-11111111111111117-7-7-7-7-7-7-7-2-2-2-4-4-4-2-4-|
G|---------------------------------8-8-8-8-8-8-8-8-1-1-1-1-1-1-1-1-|
D|-9-9-9-9-9-9-9-9-11111111111111118-8-8-8-8-8-8-8-1-1-1-1-1-1-1-1-|
A|-7-7-7-7-7-7-7-7-9-9-9-9-9-9-9-9-6-6-6-6-6-6-6-6-----------------|
D|-----------------------------------------------------------------|

Guitar 1 (cont.)
E|---------------------------------|
B|---------------------------------|
G|---------------------------------|
D|-2-2-2-2-2-2-2-2-4-4-4-4-4-4-4-4-|
A|-2-2-2-2-2-2-2-2-4-4-4-4-4-4-4-4-|
D|-2-2-2-2-2-2-2-2-4-4-4-4-4-4-4-4-|

Guitar 2 (cont.)
E|----------------------------------|
B|-9-9-9-9-9-9-9-9-1111111111111111-|
G|----------------------------------|
D|-9-9-9-9-9-9-9-9-1111111111111111-|
A|-7-7-7-7-7-7-7-7-9-9-9-9-9-9-9-9--|
D|----------------------------------|

Bridge
Guitar 1
E|---------------------------------|
B|-4-4-4-4-4-4-2-2-5-5-5-5-5-5-5-5-|
G|-----------------4-4-4-4-4-4-4-4-|
D|---------------------------------|   x2
A|---------------------------------|
D|---------------------------------|
palm muted........

Guitar 1
E|-----------------------------------------------------------------|
B|-----------------------------------------------------------------|
G|-----------------9-9-9-9-9-9-9-9-4-4-4-4-4-4-4-4-8-8-8-8-8-8-8-8-|
D|-6-6-6-6-6-6-6-6-9-9-9-9-9-9-9-9-4-4-4-4-4-4-4-4-8-8-8-8-8-8-8-8-|x4
A|-6-6-6-6-6-6-6-6-7-7-7-7-7-7-7-7-2-2-2-2-2-2-2-2-6-6-6-6-6-6-6-6-|
D|-6-6-6-6-6-6-6-6-------------------------------------------------|

Solo
Guitar 1
E|-----------------------------------------------------------------|
B|-----------------------------------------------------------------|
G|-----------------9-9-9-9-9-9-9-9-4-4-4-4-4-4-4-4-8-8-8-8-8-8-8-8-|
D|-6-6-6-6-6-6-6-6-9-9-9-9-9-9-9-9-4-4-4-4-4-4-4-4-8-8-8-8-8-8-8-8-|x2
A|-6-6-6-6-6-6-6-6-7-7-7-7-7-7-7-7-2-2-2-2-2-2-2-2-6-6-6-6-6-6-6-6-|
D|-6-6-6-6-6-6-6-6-------------------------------------------------|

Guitar 2
E|----------------------------------------------4h6h7-6-4-7--9-4-6-7-|
B|-12-11-9-7--12-11-9~---0-2-4-2-4-7--4-2--9-7-----------------------|
G|-------------------------------------------------------------------|
D|-------------------------------------------------------------------|
A|-------------------------------------------------------------------|
D|-------------------------------------------------------------------|

Guitar 2 (cont.)
E|-11-9-7-6-4-|
B|------------|
G|------------|
D|------------|

Chorus
Guitar 1
E|-----------------------------------------------------------------|
B|-----------------------------------------------------------------|
G|-----------------------------------------------------------------|
D|-2-2-2-2-2-2-2-2-4-4-4-4-4-4-4-4-1-1-1-1-1-1-1-1-6-6-6-6-6-6-6-6-| x2
A|-2-2-2-2-2-2-2-2-4-4-4-4-4-4-4-4-1-1-1-1-1-1-1-1-6-6-6-6-6-6-6-6-|
D|-2-2-2-2-2-2-2-2-4-4-4-4-4-4-4-4-1-1-1-1-1-1-1-1-6-6-6-6-6-6-6-6-|

Chorus (cont.)
Guitar 1
E|-----------------------------------------------------------------|
B|-----------------------------------------------------------------|
G|-----------------------------------------------------------------|
D|-2-2-2-2-2-2-2-2-4-4-4-4-4-4-4-4-1-1-1-1-1-1-1-1-6-6-6-6-6-6-6-6-|
A|-2-2-2-2-2-2-2-2-4-4-4-4-4-4-4-4-1-1-1-1-1-1-1-1-6-6-6-6-6-6-6-6-|
D|-2-2-2-2-2-2-2-2-4-4-4-4-4-4-4-4-1-1-1-1-1-1-1-1-6-6-6-6-6-6-6-6-|

Guitar 2
E|---------------------------------6-6-6-6-6-6-6-6-----------------|
B|-9-9-9-9-9-9-9-9-11111111111111117-7-7-7-7-7-7-7-2-2-2-4-4-4-2-4-|
G|---------------------------------8-8-8-8-8-8-8-8-1-1-1-1-1-1-1-1-|
D|-9-9-9-9-9-9-9-9-11111111111111118-8-8-8-8-8-8-8-1-1-1-1-1-1-1-1-|
A|-7-7-7-7-7-7-7-7-9-9-9-9-9-9-9-9-6-6-6-6-6-6-6-6-----------------|
D|-----------------------------------------------------------------|

Guitar 1 (cont.)
E|-------------------|
B|-------------------|
G|-------------------|
D|-2-2-2-2-2-2-2-2-4-|
A|-2-2-2-2-2-2-2-2-4-|
D|-2-2-2-2-2-2-2-2-4-|

Guitar 2 (cont.)
E|--------------------|
B|-9-9-9-9-9-9-9-9-11-|
G|--------------------|
D|-9-9-9-9-9-9-9-9-11-|
A|-7-7-7-7-7-7-7-7-9--|
D|--------------------|

Ending Chord
Guitar 1
E|---|
B|-9-|
G|-8-|
D|-6-|
A|-6-|
D|-6-|    

Added On December 16th, 2013

SHARE

Comments

blog comments powered by Disqus

VERSIONS

ADVERTISEMENT