Rise Against Tabs

This Is Letting Go

1 versions

TAB

            Best song on Rise Against's new album Endgame - This Is Letting Go

Drop D

h= hammer on
/= slide up

Intro

(Let Ring)
e --------|
B --------|
G --------|
d ----3---|
A ----3---|
D ----3---|

Guitar 1
e ------------------------------------------------------|
B ------------------------------------------------------|
G -1010101010101010--66666666------------88888888-------|
d -1010101010101010--66666666--66666666--88888888-------|
A -8 8 8 8 8 8 8 8---44444444--66666666--66666666-------|
D -----------------------------66666666---------------\-|
                                                       \ (x2)
e -----------------------------------------------------| /
B -----------------------------------------------------|
G -1010101010101010--66666666--------------------------|
d -1010101010101010--66666666--11111111--11111111------|
A -8 8 8 8 8 8 8 8---44444444--11111111--11111111------|
D -----------------------------11111111--11111111------|

Guitar 2
e ------------------------------------------------------|
B -4h6----9-8-6---4-9-4---------------------------------|
G --------------5---------3h5h3-1-----------------------|
d -------------------------------333h1-3333h1-333h1-3---|
A ------------------------------------------------------|
D ------------------------------------------------------|

e -----------------------------------------------------|
B -4h6----9-8-6---9-11-4---9h89h89h89h8----------------|
G --------------5--------------------------------------|
d -----------------------------------------------------|
A -----------------------------------------------------|
D -----------------------------------------------------|

Verse
(Palm Mute 1st time through)
e -----------------------------------------------------|
B -----------------------------------------------------|
G -1010101010101010-66666666----------88888888---------| (x4)
d -1010101010101010-66666666-66666666-88888888---------|
A -8 8 8 8 8 8 8 8 -44444444-66666666-66666666---------|
D ---------------------------66666666------------------|

Pre-Chorus
.....in an early grave.......(hit the first note when Tim sings 'grave')
e --------------------------------------------|
B --------------------------------------------|
G -6--55--------------------------------------|
d -6--55--88--66------11111111-11111111-------|
A -4--33--88--66------11111111-11111111-------|
D --------88--66------11111111-11111111-------|

Chorus
...Go on alone....
e ---------------------------------------------------------------------|
B ---------------------------------------------------------------------|
G ----------------------------------------------------6666666666666666-|
d -6666666666666666-1111111111111111-3333333333333333-6666666666666666-|(x2)
A -6666666666666666-1111111111111111-3333333333333333-4444444444444444-|
D -6666666666666666-1111111111111111-3333333333333333------------------|

..this path will be my own...
e -----------------------|
B -----------------------|
G -666666666-888888------| (Don't play the E flat after chorus 2)
d -666666666-666666------|
A -444444444-666666------|
D -----------------------|

Post-Chorus
e -------------------------8h9-----------------------------------|
B -4/6-9-8h9-11-9-8-8h9-9-9---11--4h6-9-8-6-9-11-8-9h89h89h89h8--|
G -----------------------------------------5---------------------|
d ---------------------------------------------------------------|
A ---------------------------------------------------------------|
D ---------------------------------------------------------------|


Bridge

e -----------------------------------------------|
B -----------------------------------------------|
G --------------6-6-6-6--------------------------|
d --------------6-6-6-6---------------6------5---|
A --------------4-4-4-4---------------6------5---|
D -3-5-6-8-6-5-----------6-5-3-1-3-5--6------5---|

...the wind died...
e -------------|
B -6-4h6h4h6---|
G -------------| (x15)
d -------------|
A -------------|
D -------------|

....the wind died... (2nd time)
e ----------------------------------------------|
B ----------------------------------------------|
G -1010101010101010-66666666--------------------|
d -1010101010101010-66666666-66666666-88888888--| (x4)
A -8 8 8 8 8 8 8 8 -44444444-66666666-88888888--|
D ---------------------------66666666-88888888--|

...I just know.....       ...Go on alone... (let ring, then normal chorus)
e --------------------- |------|
B --------------------- |------|
G -66666666--88888888-- |------|
d -66666666--88888888-- |--6---|
A -44444444--66666666-- |--6---|
D --------------------- |--6---|

On the last chorus on the first C#, play:

e ------------|
B ------------|
G ------------|
d ------------|
A -4-6-4-3-1--|
D ------------|

Enjoy

Intro
Verse
Pre-Chorus
Chous
Post-Chorus
Verse
Chorus
Bridge
Chorus
Chorus    

Added On December 16th, 2013

SHARE

Comments

blog comments powered by Disqus

ADVERTISEMENT