Ryan Adams Tabs

Please Do Not Let Me Go

2 versions

TAB

            Please Do Not Let Me Go Tab by Ryan Adams


ryan adams
please do not let me go
love is hell
tabbed by jordanrowland     jordan@jordanbroland.com
this is a regular choice on ryans set list and I recommend you go to 
and find a live recording. (liverpool 1.13.06 is great) this is tabbed somewhat off the album 
off the acoustic...but applies to both.

standard tuning

intro:
      A         E
e|--x----0---|
b|--2----0---|
g|--2----2h1-|
d|--2----2---|
a|--2h4--2---|
E|--x----0---|

part 1 (same as intro)
"if the walls of the room could talk"

part 2
"all alone now and i can do as i please"
      A     Esus2    E
e|--0----0----0---|
b|--0----0----0---|
g|--6----8----1---|
d|--7----9----2---|
a|--7----9----2---|
E|--0----0----0---|

"please do not let me go"
     G#m     F#m     E
e|--x-----x-----0-|
b|--0-----0-----0-|
g|--4-----2-----1-|
d|--6-----4-----2-|
a|--6-----4-----2-|
E|--4-----2-----0-|

great, easy song. see this man live    

Added On December 5th, 2013

SHARE

Comments

blog comments powered by Disqus

VERSIONS

ADVERTISEMENT