Safetysuit Tabs

Never Stop

1 versions

TAB

            -------------------------------------------------------------------------------
                             Never Stop - Safety Suit
-------------------------------------------------------------------------------
Tabbed by: R C D
E-mail: roody.poo118@gmail.com

Tuning: Standard
Intro/Chorus Guitar 1
e|----------------------------------------------------------------------------|
B|----------------------------------------------------------------------------|
G|9-9-----9-9--------11-11------11-11------9-9-----9-9-----8-8-----8-8--------|
D|---9-9--------9-9--------9-9--------9-9------9-9-----9-9-----9-9-----9-9----|
A|----------------------------------------------------------------------------|
E|----------------------------------------------------------------------------|

Intro/Verse Guitar 2
e|-------------------------------------------------------------------------|
B|-------------------------------------------------------------------------|
G|--9~~~~~~~~~~~~----------------------7~~~~~~~~~~~~~~---------------------|
D|--9~~~~~~~~~~~~----------------------7~~~~~~~~~~~~~~~~-------------------|
A|--7~~~~~~~~~~~~----------------------0~~~~~~~~~~~~~~~--------------------|
E|--0~~~~~~~~~~~-----------------------0~~~~~~~~~~~~~~~~-------------------|

Chorus: (I will never stop..)
Bridge: (You still get my heart racing..)
e|-------------------------------------------------------------------------|
B|-------------------------------------------------------------------------|
G|--9---------------7---------------6--------4-----------------------------|
D|--9---------------7---------------6--------4-----------------------------|
A|--7---------------0---------------4--------2-----------------------------|
E|--0---------------0------------------------------------------------------|    

Added On December 16th, 2013

SHARE

Comments

blog comments powered by Disqus

ADVERTISEMENT