Saosin Tabs

Finding Home

2 versions

TAB

            Finding Home Tab by Saosin


sONG: FINDING HOME
aRTIST: SAOSIN
tABBED bY: ARVIN HUFANA

nOTE: FOR ANY COMMENT, JUST SEND AN E-MAIL AT aarrvviinn11@yahoo.com


vERSE 1

e|-------------------------------------|
B|---2---3----2---3----2---3----2---3--|
G|-2---2----2---2----2---2----2---2----|
D|-------------------------------------|
A|-------------------------------------|
D|-------------------------------------|

e|-----------------|
B|-----3-----------|
G|-----2-----------|
D|-2-0-------------|
A|-2-0-------------|
D|-2-0-------------|


cHORUS

e|-----------------------------------|
B|-----------3-3-0------------2-2-3--|
G|-4-4-4-----2-2-2------------2-2-2--| (2X)
D|-4-4-4--0---------2-2-2--0---------|
A|-2-2-2--0---------2-2-2--0---------|
D|--------0---------2-2-2--0---------|

e|----------------------------------|
B|----------------------------------|
G|----------------------------------|
D|-4-4-4-4-4-4-4-4-4-4-4-4-4-4-4-4--|
A|-4-4-4-4-4-4-4-4-4-4-4-4-4-4-4-4--|
D|-4-4-4-4-4-4-4-4-4-4-4-4-4-4-4-4--|


vERSE 2

e|-------------------------------------|
B|---2---3----2---3----2---3----2---3--| (6X)
G|-2---2----2---2----2---2----2---2----|
D|-------------------------------------|
A|-------------------------------------|
D|-------------------------------------|

e|-----------------|
B|-----3-----------|
G|-----2-----------|
D|-2-0-------------|
A|-2-0-------------|
D|-2-0-------------|

cHORUS

e|-----------------------------------|
B|-----------3-3-0------------2-2-3--|
G|-4-4-4-----2-2-2------------2-2-2--| (4X)
D|-4-4-4--0---------2-2-2--0---------|
A|-2-2-2--0---------2-2-2--0---------|
D|--------0---------2-2-2--0---------|

bRIDGE

e|-----------------------------------------------------------------|
B|-----------------------------------------------------------------|
G|-6-6-6-6-6-6-6-6-8-8-8-8-8-8-8-8-11111111111111111111111111111111| (2X)
D|-4-4-4-4-4-4-4-4-6-6-6-6-6-6-6-6-8-8-8-8-8-8-8-8-8-8-8-8-8-8-8-8-|
A|-4-4-4-4-4-4-4-4-6-6-6-6-6-6-6-6-8-8-8-8-8-8-8-8-8-8-8-8-8-8-8-8-|
D|-4-4-4-4-4-4-4-4-6-6-6-6-6-6-6-6-8-8-8-8-8-8-8-8-8-8-8-8-8-8-8-8-|


(gUITAR 1)
e|-------------------------------------|
B|---2---3----2---3----2---3----2---3--|
G|-2---2----2---2----2---2----2---2----|
D|-------------------------------------|
A|-------------------------------------|
D|-------------------------------------|

(gUITAR 2)
e|------------------|
B|----2H3P2---0--2--|
G|-2--------2-------| (4X)
D|------------------|
A|------------------|
E|------------------|


cHORUS

e|-----------------------------------|
B|-----------3-3-0------------2-2-3--|
G|-4-4-4-----2-2-2------------2-2-2--|
D|-4-4-4--0---------2-2-2--0---------|
A|-2-2-2--0---------2-2-2--0---------|
D|--------0---------2-2-2--0---------|


eND

e|--------------|
B|--------------|
G|-4-4-4--------|
D|-4-4-4--0~----|
A|-2-2-2--0~----|
D|--------0~----|    

Added On December 5th, 2013

SHARE

Comments

blog comments powered by Disqus

VERSIONS

ADVERTISEMENT