Say Anything Tabs

Every Man Has A Molly

2 versions

TAB

            Every Man Has A Molly Tab by Say Anything


Song: Every Man Has a Molly
Artist: Say Anything
Album: ...Is a Real Boy
Track: 9
Tabbed By: Aaron D.
Tuning: Standard
Additional Info:

I don't claim that this tab is 100% accurate. This is just a starting point (and a good 
I think). There are variations and probably more substance added (as in most tabs) to 
I have put down here. As always, listen to the song to get timing and such down.


      h - hammer on
      p - pull off
      ^ - bend string
      r - release bend
      / - slide up
      \ - slide down
      ~ - vibrato
      x - play 'note' with heavy damping


Intro
************

e--------------------9-------|o
B--------10-------12---10~---|o
G--9-11------11-9------------|o
D----------------------------|o
A----------------------------|o
E----------------------------|o

Verse
************
   Here I am...
e-------------------------------------------------------------------------|
B----2---2-----2---------0-3-2-0-------2-3-2-------2-----2----------------|
G------------2---2---1-2---------2---2-2-----2---2-2---2---2---1-2-2/4\2--|
D--0---2-----------2---------------------------------0-------2------------|
A----------0---------------2-------------2--------------------------------|
E----------------------------------2-----------2--------------------------|

   Connelly just...
e--------------------------------------------------------|o
B----2---------0-3-2-0-------2-----2-----------------2---|o
G------2---1-2---------2---2-2---2---2---1-2-2/4\2---2---|o
D--------2---------------------0-------2-----------------|o
A--0-------------2---------------------------------0-----|o
E------------------------2-------------------------------|o

   You god...
e-------------------------------------------------------------------------|
B----2---2-----2---------0-3-2-0-------2-3-2-------2-----2----------------|
G------------2---2---1-2---------2---2-2-----2---2-2---2---2---1-2-2/4\2--|
D--0---2-----------2---------------------------------0-------2------------|
A----------0---------------2-------------2--------------------------------|
E----------------------------------2-----------2--------------------------|

   I won't...
e-----------------------------------------------------|o
B----2---------0-3-2-0-------2-----2------------------|o
G------2---1-2---------2---2-2---2---2---1-2-2/4\2~---|o
D--------2---------------------0-------2--------------|o
A--0-------------2------------------------------------|o
E------------------------2----------------------------|o


Verse #2
************
   Am laid down...
e----------------------------------------------------------------------|
B----------------------------------------------------------------------|
G--------------------------------------------------7-7-7-7-9/11-11-11--|
D--7-7-7-7-2-2-2-2-9-9-9-9-4-4-4-4-9-9-9-9-4-4-4-4-7-7-7-7-9/11-11-11--|
A--7-7-7-7-2-2-2-2-9-9-9-9-4-4-4-4-9-9-9-9-4-4-4-4-5-5-5-5-7/9--9--9---|
E--5-5-5-5-0-0-0-0-7-7-7-7-2-2-2-2-7-7-7-7-2-2-2-2---------------------|

e-------------------------------------------------------------------|
B-------------------------------------------------------------------|
G----------------------------------7-7-7-7-9-9-9-9---------7-7-9-9--|
D--7-7-7-7-2-2-2-2-9-9-9-9-4-4-4-4-7-7-7-7-7-7-7-7-7-7-7-7-7-7-7-7--|
A--7-7-7-7-2-2-2-2-9-9-9-9-4-4-4-4-5-5-5-5-7-7-7-7-5-5-5-5-5-5-7-7--|
E--5-5-5-5-0-0-0-0-7-7-7-7-2-2-2-2-----------------5-5-5-5----------|

e----------------------------------------------------------------------|
B----------------------------------------------------------------------|
G--------------------------------------------------7-7-7-7-9/11-11-11--|
D--7-7-7-7-2-2-2-2-9-9-9-9-4-4-4-4-9-9-9-9-4-4-4-4-7-7-7-7-9/11-11-11--|
A--7-7-7-7-2-2-2-2-9-9-9-9-4-4-4-4-9-9-9-9-4-4-4-4-5-5-5-5-7/9--9--9---|
E--5-5-5-5-0-0-0-0-7-7-7-7-2-2-2-2-7-7-7-7-2-2-2-2---------------------|

e--------------------------------------------------------------------|o
B--------------------------------------------------------------------|o
G----------------------------------7-7-7-7-9-9-9-9-------------------|o
D--7-7-7-7-2-2-2-2-9-9-9-9-4-4-4-4-7-7-7-7-7-7-7-7-7-7-7-7-7-7-7-7---|o
A--7-7-7-7-2-2-2-2-9-9-9-9-4-4-4-4-5-5-5-5-7-7-7-7-5-5-5-5-5-5-7-7---|o
E--5-5-5-5-0-0-0-0-7-7-7-7-2-2-2-2-----------------5-5-5-5-5-5-5-5---|o


Interlude
************

e---------------------------------------------------------------------|
B---------------------------------------------------------------------|
G---------------------------------------------------------------------| (x2)
D----0---0---0---0---0---------------0---0---0---0---0-------0---0----|
A--5---4---2---2---2---2---0---0---5---4---2---2---2---2-2/4---4---4--|
E------------------------2---2---2------------------------------------|

e-----------------------------------------------------------|
B-----------------------------------------------------------|
G-----------------------------------------------------------|
D----0---0---0---0---0---------------0---0---0---0---0------|
A--5---4---2---2---2---2---0---0---5---4---2---2---2---2----|
E------------------------2---2---2-----------------------2--|


Okay so I hope that gets somebody started cause this is an awesome band and it's hard to 
[good] tabs for them.    

Added On December 12th, 2013

SHARE

Comments

blog comments powered by Disqus

VERSIONS

ADVERTISEMENT