Say Anything Tabs

This Is Fucking Ecstasy

2 versions

TAB

            -------------------------------------------------------------------------------
         	    This is Fucking Ecstasy - Say Anything
-------------------------------------------------------------------------------
Tabbed by:thea.trio@gmail.com
Email:thea.trio@gmaail.com

Um.. I'm pretty sure this right up until the end.  This is my only tab because I really 
this song so tell me how it is.  Enjoy.  And this is based off of a live performance 
I saw so bear with me..

Tuning:From the video I'm pretty sure Max tunes the guitar one whole step down, i.e. D B 
F A d

Verse 1

d|---------------------------------------------------------------------------|
A|---------------------------------------------------------------------------|
F|10-10-10--9--9----------------12-12-12-12-12-12-12-12-12-12----------------|
C|10-10-10-10-10-10-10-10-10-10--9--9--9--9--9--9--9--9--9--9-x5-------------|
B|-8--8--8--7--7----------------10-10-10-10-10-10-10-10-10-10----------------|
D|---------------10-10--8--8--8----------------------------------------------|

I can't accurately tab the strumming pattern for the rest of the song but it's not too 
to figure out. o.O

Pre-Chorus

d|---------------------|
A|---------------------|
F|-12------12----------|
C|-10-------9-----x2---|
G|--8------10----------|
D|---------------------|

Chorus
(Like I said you have to figure out the strumming pattern)

d|---------------------|
A|---------------------|
F|--5--4--7------------|
C|--5--5--5-----x4-----|
G|--x--x--3------------|
D|--5--5--3------------|

Verse 2

d|---------------------------------------------------------------------------|
A|---------------------------------------------------------------------------|
F|---------------------------------------------------------------------------|
C|---------------------------------------------------------------------------|
G|--8--8--8--7--7----------------10-10-10-10-10-10-10-10-10-10---------------|
D|----------------10-10--8--8--8---------------------------------------------|

Then play the chords from the first verse 3 times.

Chorus again

Not really sure how the bridge and the end of the song are played... sorry.

| /  slide up
| \  slide down
| h  hammer-on
| p  pull-off
| ~  vibrato
| +  harmonic
| x  Mute note
===============================================================================    

Added On December 16th, 2013

SHARE

Comments

blog comments powered by Disqus

VERSIONS

ADVERTISEMENT