Say Anything Tabs

Total Revenge

4 versions

TAB

            Total Revenge Tab by Say Anything


Total Revenge-Say Anything

standard tuning

tabbed by Brenton
Intro
e|----------------------------------------------------------------------|
B|-------4---4---4-----------2---2---2----------------------------------|
G|--------------------------------------------------------2--1----------|
D|-4/6-----4---4----2/4--------2---2----------------------2--2----------|x2
A|-----2-------------------0-----------------2---4-2-4-2----------------|
E|-------------------------------------2h4---0---0-0-0-0----------------|


1st Verse
e|---------------------------------------------------|
B|---4-4-4-4-4-4-4-4------X-4--4-4-4-----------0-0--|
G|---4-4-4-4-4-4-4-4--3-3-X-4--4-4-4---------4-6-4--|
D|---4-4-4-4-2-2-2-2--4-4-X-2--2-2-2---x4----4-6-2--|
A|---2-2-2-2-2-2-2-2--2-2-X-2--2-2-2---------2-4----|
E|---------------------------------------------------|
(When I like you it’s total revenge…)


Pre-Chorus
e|---------------------------------------------------|
B|-5-5-5--0-0-0--4-4-4--2-2-2---------------------4-4|
G|-6-6-6--1-1-1--4-4-4--3-3-3------4-4-4-4-4--4-4-4-4|
D|-6-6-6--2-2-2--4-4-4--2-2-2--x3--3-3-3-3-3--2-2-2-2|
A|--------2-2-2--2-2-2--4-4-4------2-2-2-2-2--2-2-2-2|
E|--------0-0-0---------2-2-2------------------------|
(Wrap me up, in a plastic case…)

play intro, verse, and pre-chorus again, then...

chorus
e|---------------|
B|---------------|
G|-4-(3)-4-------|
D|-4--4--2----x4-|
A|-2--4--2-------|
E|----2--0-------|
(there's a man assigned to me....)

e|--0---------------------0---|
B|--4---------------------4---|
G|--4--4------------------4---|
D|--2--4--4---x3-end on --2---| second time, slide up from F# to G# 
A|--2--2--4---------------2---| before going back to B.
E|--------2-------------------|
(but maybe, i can show you....)








Play the chorus twice then the solo…

e|---------------------------------------------|
B|--------4-2-------------------4-2------------|
G|--1-3-4-----4-4—2s12s2--1-3-4-----3-3h4u3-1--|
D|---------------------------------------------|
A|---------------------------------------------|
E|---------------------------------------------|

e|---------------------------------------------|
B|--------4-2----------------------------------|
G|--1-3-4-----4-4----1-3-4-3-1-----------------|
D|-----------------------------4-6-4-2-1-------|
A|---------------------------------------------|
E|---------------------------------------------|    

Added On December 12th, 2013

SHARE

Comments

blog comments powered by Disqus

VERSIONS

ADVERTISEMENT