Seether Tabs

Breakdown

4 versions

TAB

            *First tab*

Seether-Breakdown
Tuning-Drop C (can be Drop D if you please)

Questions? Contact me at:

e-mail: shadow11491@yahoo.com
aim: revan114

NOTE: This isnt 100% correct but it is pretty close, I know those little solos are 
close. Because the opening riff sounds so digital, it was a little hard to figure out. I know 
end of the chorus might sound a little different, but I'm working on it.

Intro/Verses

| ----------------------2-2-2-2-2-2-----------|
| ----------------------3-3-3-3-3-3-----------|
| ----------4-4-4-4-4-4-2-2-2-2-2-2-----------|
| --2-2p0-0-4-4-4-4-4-4-0-0-0-0-0-0-----------|
| --2-2p0-0-2-2-2-2-0-0-----------------------|
| --2-2p0-0-x-x-x-x-x-x-----------------------|

| --------------------------------3p2--------------|
| ----------------------------3--------------------|
| ----------4-4-4-4-4-4----2-----------------------|
| --2-2p0-0-4-4-4-4-4-4--0-------------------------|
| --2-2p0-0-2-2-2-2-0-0----------------------------|
| --2-2p0-0-x-x-x-x-x-x----------------------------|

^^Make sure you watch the timing during the verses, the piano diddy can throw you off.
follow the rhythem. Once you do, things will be clear for you.

Chorus


| --------------------------------|
| --------------------------------|
| --5-5-5-5-----------------------|         Repeats
| --5-5-5-5-2-2-2-2---------------|
| --3-3-3-3-2-2-2-2---------------|
| ----------2-2-2-2---------------|


Because I'm so much more..than meets the eye
| --------------------------|
| --------------------------|
| --5s-9-9-9-9-5------------|
| --5s-9-9-9-9-5------------|
| --3s-7-7-7-7-3------------|
| --------------------------|

Solo 1

So much more..than meets the eye

|---------------------------------------------------------------|
|--7h8--7-----7h8--7-----7h-8-7h8--10-8-7-----------------------|
|---------7----------7--------------------------------7---------|
|-----------9----------9----------------------------------7-----|
|---------------------------------------------------------------|
|---------------------------------------------------------------|


Solo 2

So much more..than all your lies
|---------------------------------------------------------------|
|--7h8--7-----7h8--7-----7h-8-7h8--10-8-7-----------------------|
|---------7----------7--------------------------------7---------|
|-----------9----------9----------------------------------7-----|
|---------------------------------------------------------------|
|---------------------------------------------------------------|

|-------------------------------------12-10-7----------------------|
|--7h8--7-----7h8--7-----7h-8-7h8--10-----------------10-10s-12-12-|
|---------7----------7---------------------------------------------|
|-----------9----------9-------------------------------------------|
|------------------------------------------------------------------|
|------------------------------------------------------------------|

NOTE: Not sure about the last few notes but thats pretty close. You can also play those 
four notes on the D string, last one in this tuning, "7-7s9-9". Which ever one sounds 
for you.

For the rest of the song you play the chorus riff.    

Added On December 16th, 2013

SHARE

Comments

blog comments powered by Disqus

VERSIONS

ADVERTISEMENT