Seether Tabs

Fallen

2 versions

TAB

            -------------------------------------------------------------------------------
			     Seether - Fallen
-------------------------------------------------------------------------------
Tabbed by: buba1986
Email: buba1986@hotmail.co.uk

Tuning: Drop C

This is one of the new rocking seether songs. During the last 2 chorus's, you can hear a 
guitar, haven't figured it out but if you muck around with the parts in bridge parts 1 
2, you will figure it out. Enjoy and please rate, its my first attempt at a seether song :)

Please look at the song order at the bottom of the page for help


Intro/chorus

d|---------------------------------------------------------------------------|
A|---------------------------------------------------------------------------|
F|------------------5--7--------------------5--------------------------------|
C|--0---3---5---0---x--x----0---3---5---0---x--------------------------------|
G|--0---3---5---0---3--5----0---3---5---0---3--5-----------------------------|
C|--0---3---5---0-----------0---3---5---0------5-----------------------------|

d|---------------------------------------------------------------------------|
A|---------------------------------------------------------------------------|
F|------------------5--7-----------------------------------------------------|
C|--0---3---5---0---x--x----0---3---5---0-------3h5--------------------------|
G|--0---3---5---0---3--5----0---3---5---0---3h5------------------------------|
C|--0---3---5---0-----------0---3---5---0------------------------------------|

Verse

d|---------------------------------------------------------------------------|
A|-----------10--------------------------------------------------------------|
F|-----------12^-------------------------------------------------------------|
C|---------------------10-------10-------------------------------------------|
G|--0---0----------0---10---0---10-------------------------------------------|
C|--0---0----------0---10---0---10-------------------------------------------|
   p.m p.m        p.m      p.m

Pre-chorus

d|------------------------------------------------------------------------------|
A|------------------------------------------------------------------------------|
F|---7---x8----10---x8--7---x8-------x8-----------------------------------------|
C|---5---------8--------5--------10---------------------------------------------|
G|---5---------8--------5--------8----------------------------------------------|
C|---5---------8--------5--------8----------------------------------------------|

Bridge part 1

d|---------------------------------------------------------------------------|
A|---------------------------------------------------------------------------|
F|-------------10^------------12^------------14^------------17-17------------|
C|---------------------------------------------------------------------------|
G|---0-0-0-0--------0-0-0-0--------0-0-0-0--------0-0-0-0--------------------|
C|---0-0-0-0--------0-0-0-0--------0-0-0-0--------0-0-0-0--------------------|
    [..p.m..]      [..p.m..]      [..p.m..]      [..p.m...]

Bridge part 2

d|------10-10-10-10-10------12-12-12-12-12------13-13-13-13-13---------------|
A|------10-10-10-10-10------12-12-12-12-12------13-13-13-13-13---------------|
F|---------------------------------------------------------------------------|
C|---------------------------------------------------------------------------|
G|--0-------------------0--------------------0-------------------------------|
C|--0-------------------0--------------------0-------------------------------|
   p.m                 p.m                  p.m

d|-----15-15-15-15-15-------17-17-17-17-17------20-20-20-20-20---------------|
A|-----15-15-15-15-15-------17-17-17-17-17------20-20-20-20-20---------------|
F|---------------------------------------------------------------------------|
C|---------------------------------------------------------------------------|
G|--0-------------------0--------------------0-------------------------------|
C|--0-------------------0--------------------0-------------------------------|
   p.m                 p.m                  p.m


d|-----22-x16----------------------------------------------------------------|
A|-----22--------------------------------------------------------------------|
F|---------------------------------------------------------------------------|
C|-------------PLAY-BRIDGE-HERE-THEN----after-long-silence-------------------|
G|--0-------------------------------------------------------0-0-0-0----------|
C|--0-------------------------------------------------------0-0-0-0----------|
   p.m                                                     [..p.m..]

Song order

Intro x2
Verse x8
Pre-chorus x2
Chorus x2
Verse x8
Pre-chorus x2
Chorus x2
Bridge part 1 x2
Bridge part 2 x1
Chorus x4

| ^  bend up
| /  slide up
| \  slide down
| h  hammer-on
| p  pull-off
| ~  vibrato
| +  harmonic
| x  Mute note
===============================================================================    

Added On December 16th, 2013

SHARE

Comments

blog comments powered by Disqus

VERSIONS

ADVERTISEMENT