Seether Tabs

Never Leave

4 versions

TAB

            Never Leave Tab by Seether


Seether
"Never Leave"
Karma and Effect

Tuning: Drop D tuned down 1/2 step (Db)

Intro and Verse:
Guitar 1

Eb------------------------------------------------------|
Bb-------------------------6----------------------------|
Gb------5-9-5---7---------------------------------------|(2x)
Db--0-7-------7----------8---10-8-10--------------------|
Ab---------------------8--------------------------------|
Db-------------------8----------------------------------|

Intro 2
Guitar 1:
Guitar 2: Keep playing Intro 1

Eb--10-10-8-8-------------------------------------------|
Bb------------10-10-8-8-8-8-8-6-------------------------|
Gb------------------------------------------------------|(2x)
Db------------------------------------------------------|
Ab------------------------------------------------------|
Db------------------------------------------------------|

Verse

Pre-Chorus:

Eb--10-10-10-10-10-8-8-8-8-----------------------------------|
Bb-------------------------10-10-10-10-8-8-8-8-8-8-8-8-8-8-6-|
Gb-----------------------------------------------------------|(2x)
Db-----------------------------------------------------------|
Ab-----------------------------------------------------------|
Db-----------------------------------------------------------|

Chorus:

Eb--------------------------------------------------------------------|
Bb--------------------------------------------------------------------|
Gb--------------------------------------------------------------------|(2x)
Db-x-x-x-x-0--0-0-0--0-0-0-0--0-0-0-0-0--8--8-8-8--8-8-8-8--8-8-8-8-8-|
Ab-x-x-x-x-0--0-0-0--0-0-0-0--0-0-0-0-0--8--8-8-8--8-8-8-8--8-8-8-8-8-|
Db-x-x-x-x-0--0-0-0--0-0-0-0--0-0-0-0-0--8--8-8-8--8-8-8-8--8-8-8-8-8-|

Intro 1 & 2

Verse

Pre-chorus

Chorus

Second time on chorus, play this in the end:
------------------------------------------------|
------------------------------------------------|
------------------------------------------------|
-3--3-3-3--3-3-3-3--3-3-3-3-3--1--1-1--1-1-1-1--|
-3--3-3-3--3-3-3-3--3-3-3-3-3--1--1-1--1-1-1-1--|
-3--3-3-3--3-3-3-3--3-3-3-3-3--1--1-1--1-1-1-1--|

Bridge:

Eb----------------------------------------------|
Bb--8-8-8-8-8-6-6-6-6-5-5-5-6-5-5-5-1-----------|
Gb----------------------------------------------|(4x)
Db----------------------------------------------|
Ab----------------------------------------------|
Db----------------------------------------------|

Eb--------------------------------------------17----17----|
Bb-----------------------------------------15----15----15-|
Gb--5-7-9-7-9-10-9-10-12-10-12-14-12-14-17----------------|(2x)
Db--------------------------------------------------------|
Ab--------------------------------------------------------|
Db--------------------------------------------------------|

Chorus

Second part of Bridge 3x

The End!

If anyone has any questions or comments, you can e-mail me at AmyLee12_13@yahoo.com

Thanks a bunches!
Peace out cub scouts!    

Added On December 12th, 2013

SHARE

Comments

blog comments powered by Disqus

VERSIONS

ADVERTISEMENT