Senses Fail Tabs

Cant Be Saved

6 versions

TAB

            -----------------------------------------------------------------
Can’t Be Saved – Senses Fail
-----------------------------------------------------------------
Tabbed by: Cory
Email:tbs_7424@yahoo.com
Tuning: Dropped D (low to high- DADGBe)

Rhythm Intro

e|------------------------|
B|------------------------|
G|------------------------|  (Played before lead intro riff)
D|--0~---------------5----|
A|--0~---------------5----|
D|--0~---------------5----|

Lead Intro Riff

e|-----------------------------------------------------------------|
B|--------10-12-10------------10-12-10------------10-12-10---------|
G|--11-12----------12---11-12----------12---11-12----------12------|
D|-----------------------------------------------------------------|
A|-----------------------------------------------------------------|
D|-----------------------------------------------------------------|

e|------------------------------|
B|------------------------------|
G|--11h12p11h12p11h12p11h12-----|
D|------------------------------|
A|------------------------------|
D|------------------------------|

Rhythm during Lead intro riff

e|-----------------------------------------|
B|-----------------------------------------|
G|-----------------------------------------|
D|--9-9-9-9---5-5-5-5---0-0-0-0-0-0-0-0----|  (Play twice)
A|--9-9-9-9---5-5-5-5---0-0-0-0-0-0-0-0----|
D|--9-9-9-9---5-5-5-5---0-0-0-0-0-0-0-0----|


Verse   (I do not know the lead part)

e|---------------------------------------------------|
B|---------------------------------------------------|
G|---------------------------------------------------|
D|--99999999---55555555---0000000000000000-----------| (play twice)
A|--99999999---55555555---0000000000000000-----------|
D|--99999999---55555555—--0000000000000000-----------|
p.m ********   ********   **************** 
		

e|---------------------------------------------------------------|
B|---------------------------------------------------------------|
G|---------------------------------------------------------------|
D|--99999999---5555-5-5---00000000000000-------------------------|
A|--99999999---5555-5-5---00000000000000-------------------------|
D|--99999999---5555-5-5---00000000000000-------------------------|
p.m ********   ****       ********** **	


e|---------------------------------------------------------------|
B|---------------------------------------------------------------|
G|---------------------------------------------------------------|
D|--99999999---5555-5-5---00000000000000-------------------------|
A|--99999999---5555-5-5---00000000000000-------------------------|
D|--99999999---5555-5-5---00000000000000-------------------------|
p.m ********   ****       **************


Chorus	

Rhythm
e|------------------------------|
B|------------------------------|
G|------------------------------|
D|--9999--5555--00000000--------|  (Play 3 times)
A|--9999--5555--00000000--------|
D|--9999--5555--00000000--------|


Lead  (Same riff-just an octave higher)
e|--------17-19-17------------17-19-17-----------17-19-17---|
B|--19-20----------20---19-20-----------20---19-20--------20|
G|----------------------------------------------------------|
D|----------------------------------------------------------|
A|----------------------------------------------------------|
D|----------------------------------------------------------|

e|-----------------------------------------|
B|--19h20p19h20p19h20p19h20----------------|
G|-----------------------------------------|
D|-----------------------------------------|
A|-----------------------------------------|
D|-----------------------------------------|



Repeat Verse
Repeat Chorus









Bridge

e|---------------------------------------------------------|
B|---------------------------------------------------------|
G|--66666-66666--------------------------------------------|
D|--xxxxx-xxxxx---5—-4p0-4p0---------4p0-4p0---------------| (3x)
A|--44444-44444---5—-4p0-4p0---------4p0-4p0---------------|
D|----------------5—-4p0-4p0-000000--4p0-4p0-000000--------|
p.m                          ******          ******           


e|-------------------| e|---------------------------------|
B|-------------------| B|---------------------------------|
G|--66666-66666------| G|---------------------------------|
D|--xxxxx-xxxxx---5--| D|---------------------------------|(4x)
A|--44444-44444---5--| A|---------------------------------|
D|----------------5—-| D|--0h4h5-0h4h5-0h4h5-0h4h5-0h4h5--|


e|-------------------------------------|
B|-------------------------------------|
G|-------------------------------------|
D|--99999\-----0-xx-0-xxxx-0-xx-0------|
A|--99999\-----0-xx-0-xxxx-0-xx-0------|
D|--99999\-----0-xx-0-xxxx-0-xx-0------|

Repeat Chorus


Ending

e|------------------------------------------------------|
B|------------------------------------------------------|
G|------------------------------------------------------|
D|--99999999--55555555----------------------------------| (x3)
A|--99999999--55555555----------------------------------|
D|--99999999--55555555—--0h4h5-0h4h5-0h4h5-0h4h5-0h4h5--|


e|----------------------|
B|----------------------|
G|----------------------|
D|--99999999--55555555--|
A|--99999999--55555555--|
D|--99999999--55555555--|

e|---------------------------------------------------------------|
B|---------------------------------------------------------------|
G|---------------------------------------------------------------|
D|--4p0-4p0--------4p0-4p0--------4p0-4p0--------4p0-4p0—-9~-----|
A|--4p0-4p0--------4p0-4p0--------4p0-4p0--------4p0-4p0—-9~-----|
D|--4p0-4p0-000000-4p0-4p0-000000-4p0-4p0-000000-4p0-4p0—-9~-----|
P.m         ******         ******         ******    

Added On December 16th, 2013

SHARE

Comments

blog comments powered by Disqus