Senses Fail Tabs

One Eight Seven

7 versions

TAB

            One Eight Seven Tab by Senses Fail


Here is the tab for One Eight Seven. Senses Fail is an awsome band and this tab
is 99% Correct.  Some of the strumming is off but the Chords are right.

PM = ............
Ring Out = ~  
Drop D Tuning

Intro
Guitar 1

e:---------0----------------0----------------0---------------0-------
B:-----3-----3---3------3-----3----------3-----3---3-----3-----3---3-
G:-2-2---2-----2----4-4---4-----2h4--0-0---0-----0---0-0---0-----0---
D:-------------------------------------------------------------------
A:-------------------------------------------------------------------
D:-------------------------------------------------------------------

Guitar 2

e:-12---12---12---12----10--10--10--10----9---9---9---9---9---9---9--
B:---10---10---10---10----10--10--10--10---10--10--10--10--10--10--10
G:-------------------------------------------------------------------
D:-------------------------------------------------------------------
A:-------------------------------------------------------------------
D:-------------------------------------------------------------------

Verse 

Both Guitars 

(Shot Through My Heart...)

e:------------------------------------------------------------------
B:------------------------------------------------------------------
G:------------------------------------------------------------------
D:-0-0-0-0-0-0-0--9-9-9-9-9-9-9--7-9-5-5-5-5-5-5-5--5-5-5-5-5-5-----
A:-0-0-0-0-0-0-0--9-9-9-9-9-9-9--7-9-5-5-5-5-5-5-5--5-5-5-5-5-5-----
D:-0-0-0-0-0-0-0--9-9-9-9-9-9-9--7-9-5-5-5-5-5-5-5--5-5-5-5-5-5-----
     .............................................  ...   ...

Chorus

e:------------------------------------------------------------------
B:------------------------------------------------------------------
G:------------------------------------------------------------------
D:-9-9-9-9-9-9-9--5-5-5-5-5-5-5--0-0-0-0-0-0-0--7-7-7-7-7-7-7-------
A:-9-9-9-9-9-9-9--5-5-5-5-5-5-5--0-0-0-0-0-0-0--7-7-7-7-7-7-7-------
D:-9-9-9-9-9-9-9--5-5-5-5-5-5-5--0-0-0-0-0-0-0--7-7-7-7-7-7-7-------

Go back to the first guitar intro then play the Verse part again and go to Chorus 

After they scream "Knowing you'll never see the light of day" for the last time
plam mute the 7-7-7 Chord then just repeat the Chorus with a pause in the middle.  

Ending

e:-------------------------------------------------------------------
B:-------------------------------------------------------------------
G:-------------------------------------------------------------------
D:-9~--9-9-9-9~------------------------------------------------------
A:-9~--9-9-9-9~------------------------------------------------------
D:-9~--9-9-9-9~------------------------------------------------------  
       .....

Enjoy and God Bless

Matt    

Added On December 12th, 2013

SHARE

Comments

blog comments powered by Disqus