Sepultura Tabs

Slave New World

7 versions

TAB

            Slave New World Tab by Sepultura


Artist: Sepultura
Song Title: Slave New World
Album: Chaos A-D

Tabbed By: Richard Rivera 
Email: f1rick0@yahoo.com

Tunning: Drop D (D-a-d-g-b-e)

(play 4x)
|---------------------------------------------------------------|
|---------------------------------------------------------------|
|---------------------------------------------------------------|
|-0--2--3-------------------------------------------------------|
|-0--2--3-------------------------------------------------------|
|-0--2--3-------------------------------------------------------|

(play 6x)
|---------------------------------------------------------------|
|---------------------------------------------------------------|
|---------------------------------------------------------------|
|---------------------------------------------------------------|
|-----------------------6/5-------------------------------------|
|-0-0-0-0-0-0-0-0-0-0-0-6/5-------------------------------------|

(play 2x)
|---------------------------------------------------------------|
|---------------------------------------------------------------|
|---------------------------------------------------------------|
|-0-2/3--0-3/6--------------------------------------------------|
|-0-2/3--0-3/6--------------------------------------------------|
|-0-2/3--0-3/6--------------------------------------------------|

(play 4x)
|---------------------------------------------------------------|
|---------------------------------------------------------------|
|---------------------------------------------------------------|
|---------------------------------------------------------------|
|-----------------------6/5-------------------------------------|
|-0-0-0-0-0-0-0-0-0-0-0-6/5-------------------------------------|

|---------------------------------------------------------------|
|---------------------------------------------------------------|
|---------------------------------------------------------------|
|-0-2/4--0-2/4--0-2/4--1~---------------------------------------|
|-0-2/4--0-2/4--0-2/4--1~---------------------------------------|
|-0-2/4--0-2/4--0-2/4--1~---------------------------------------|

(play 8x)
|---------------------------------------------------------------|
|---------------------------------------------------------------|
|---------------------------------------------------------------|
|-0h1-1-1/2-2~--------------------------------------------------|
|-0h1-1---------------------------------------------------------|
|-0h1-1---------------------------------------------------------|

(play 4x)
|---------------------------------------------------------------|
|---------------------------------------------------------------|
|---------------------------------------------------------------|
|-0-2/1--0~-----------------------------------------------------|
|-0-2/1--0~-----------------------------------------------------|
|-0-2/1--0~-----------------------------------------------------|

(play 2x)
|---------------------------------------------------------------|
|---------------------------------------------------------------|
|---------------------------------------------------------------|
|-0-2/4-----0-2/4-----0-2/4-------------------------------------|
|-0-2/4-0-0-0-2/4-0-0-0-2/4-------------------------------------|
|-0-2/4-0-0-0-2/4-0-0-0-2/4-0-0-0-0-0-0-0-0-0-------------------|

(play 4x)
|---------------------------------------------------------------|
|---------------------------------------------------------------|
|---------------------------------------------------------------|
|-7/8-8\7/8-8\7/8-8\7/8-0~--------------------------------------|
|-5/6-6\5/6-6\5/6-6\5/6-0~--------------------------------------|
|-----------------------0~--------------------------------------|

(play this til the end of the solo)
|---------------------------------------------------------------|
|---------------------------------------------------------------|
|---------------------------------------------------------------|
|---------------------------------------------------------------|
|---------------------------------------------------------------|
|-0-2-0-3/6~----------------------------------------------------|

(play 8x)
|---------------------------------------------------------------|
|---------------------------------------------------------------|
|---------------------------------------------------------------|
|---------------------------------------------------------------|
|-----------------------6/5-------------------------------------|
|-0-0-0-0-0-0-0-0-0-0-0-6/5-------------------------------------|

(end)
|---------------------------------------------------------------|
|---------------------------------------------------------------|
|---------------------------------------------------------------|
|-0-2/3---------------------------------------------------------|
|-0-2/3---------------------------------------------------------|
|-0-2/3---------------------------------------------------------|    

Added On December 16th, 2013

SHARE

Comments

blog comments powered by Disqus