TAB

            Serj Tankian
Money
Elect The Dead

Tabbed by: Michael Basmajian
E-Mial: redsoxmb545@comcast.net
Note: There are really only three sections in this song for guitar. The Pre-
Chorus, the Chorus, and the Verse. I mapped out the whole thing for you,
including the time in the song. I of course didn't tab out the short piano pieces
in between the sections. They should not be arranged for guitar. This is a really
powerful song, I hope you enjoy the song as well as the tab. E-mail me with any
questions/comments, and remember to Elect the Dead!


Tuning: Drop D (DADGBe)

(Pre-Chorus)
0:10
e|---------------------------------------------------------------------------|
B|-----------------------------------------------------------7-10------------|
G|----12----14-12--------10----12-10-------8---10-8------7-------------------|
D|-12----12-------12--10----10-------10--8---8------8--7---7-----------------|
A|---------------------------------------------------------------------------|
D|---------------------------------------------------------------------------|
                                                                          x 2


0:31

(Chorus)
Heavy distortion

MONEY!!!...

e|---------------|
B|---------------|
G|---------------|
D|-5-5--3--1--0--|
A|-5-5--3--1--0--|
D|-5-5--3--1--0--|  x8

(Verse)
0:53

e|-----5--------5---------8---------6----|
B|---8---8----8---8----11---11----9---9--|
G|---------------------------------------|
D|---------------------------------------|
A|---------------------------------------|
D|-5--------5--------8----------6--------| x 4

(Pre-Chorus)
1:36
e|---------------------------------------------------------------------------|
B|-----------------------------------------------------------7-10------------|
G|----12----14-12--------10----12-10-------8---10-8------7-------------------|
D|-12----12-------12--10----10-------10--8---8------8--7---7-----------------|
A|---------------------------------------------------------------------------|
D|---------------------------------------------------------------------------|
                                                                          x 2


1:57

(Chorus)
Heavy distortion

MONEY!!!...

e|---------------|
B|---------------|
G|---------------|
D|-5-5--3--1--0--|
A|-5-5--3--1--0--|
D|-5-5--3--1--0--|  x8


(Verse)

2:13

e|-----5--------5---------8---------6----|
B|---8---8----8---8----11---11----9---9--|
G|---------------------------------------|
D|---------------------------------------|
A|---------------------------------------|
D|-5--------5--------8----------6--------| x 2

(Pre-Chorus)
2:34
e|---------------------------------------------------------------------------|
B|-----------------------------------------------------------7-10------------|
G|----12----14-12--------10----12-10-------8---10-8------7-------------------|
D|-12----12-------12--10----10-------10--8---8------8--7---7-----------------|
A|---------------------------------------------------------------------------|
D|---------------------------------------------------------------------------|
                                                                          x 2

3:17
(Chorus)
Heavy distortion

MONEY!!!...

e|---------------|
B|---------------|
G|---------------|
D|-5-5--3--1--0--|
A|-5-5--3--1--0--|
D|-5-5--3--1--0--|  x16    

Added On December 16th, 2013

SHARE

Comments

blog comments powered by Disqus

VERSIONS

ADVERTISEMENT