Skillet Tabs

Last Night

4 versions

TAB

            Last Night Tab by Skillet


Tabbed by: Stellar_gnome
Email:Stellar_gnome@sbcglobal.net

Tuning:standerd

(Intro: keybord)

   Bm                         G           F#
e|-----------------------------------------------------------------------|
B|-----------------------------------------------------------------------|
G|----------------------------4-4-4--4-4--3------------------------------|
D|-9-9-9-9--9-9-9-9--9-9-9-9--5-5-5--5-5--4------------------------------|
A|-9-9-9-9--9-9-9-9--9-9-9-9--5-5-5--5-5--4------------------------------|
E|-7-7-7-7--7-7-7-7--7-7-7-7--3-3-3--3-3--2------------------------------|

  Bm                         G           F#
e|-----------------------------------------------------------------------|
B|-----------------------------------------------------------------------|
G|----------------------------4-4-4--4-4--3------------------------------|
D|-9-9-9-9--9-9-9-9--9-9-9-9--5-5-5--5-5--4------------------------------|
A|-9-9-9-9--9-9-9-9--9-9-9-9--5-5-5--5-5--4------------------------------|
E|-7-7-7-7--7-7-7-7--7-7-7-7--3-3-3--3-3--2------------------------------|

(More Keybord)

I just came to say good bye...

(Palm Mute)
  Bm        G      F#   Bm      G      F#    E       Bm       G
e|---------------------------------------------------------------------------|
B|---------------------------------------------------------------------------|
G|---------------------------------------------------------------------------|
D|-9-9-9-9--5-5-5--4-4--9-9-9-9--5-5-5--4-4--2-2-2-2--9-9-9-9--5-5-5---------|
A|-9-9-9-9--5-5-5--4-4--9-9-9-9--5-5-5--4-4--2-2-2-2--5-5-5-5--4-4-4---------|
E|-7-7-7-7--3-3-3--2-2--7-7-7-7--3-3-3--2-2-----------7-7-7-7--3-3-3---------|

But i know its a lie...

  Em       Bm    A
e|---------------------------------------------------------------------------|
B|---------------------------------------------------------------------------|
G|----------8-8--6-6---------------------------------------------------------|
D|-2-2-2-2--9-9--7-7---------------------------------------------------------|
A|-2-2-2-2--7-7--7-7---------------------------------------------------------|
E|----------7-7--5-5---------------------------------------------------------|

CH
This is the last night...
   G    B    D    A    G    B    D    A    G
e|--------------------------------------------------------------------------|
B|-----------6-6-----------------6-6----------------------------------------|
G|-4-4--8-8--7-7--6-6--4-4--8-8--7-7--6-6--4-4------------------------------|
D|-5-5--9-9--7-7--7-7--5-5--9-9--7-7--7-7--5-5------------------------------|
A|-5-5--9-9--5-5--7-7--5-5--9-9--5-5--7-7--5-5------------------------------|
E|-3-3--7-7-------5-5--3-3--7-7-------5-5--3-3------------------------------|

The last night...
  G    B    D    A    G    B    D    A    G
e|--------------------------------------------------------------------------|
B|-----------6-6-----------------6-6----------------------------------------|
G|-4-4--8-8--7-7--6-6--4-4--8-8--7-7--6-6--4-4------------------------------|
D|-5-5--9-9--7-7--7-7--5-5--9-9--7-7--7-7--5-5------------------------------|
A|-5-5--9-9--5-5--7-7--5-5--9-9--5-5--7-7--5-5------------------------------|
E|-3-3--7-7-------5-5--3-3--7-7-------5-5--3-3------------------------------|

   Bm                         G           F#
e|-----------------------------------------------------------------------|
B|-----------------------------------------------------------------------|
G|----------------------------4-4-4--4-4--3------------------------------|
D|-9-9-9-9--9-9-9-9--9-9-9-9--5-5-5--5-5--4------------------------------|
A|-9-9-9-9--9-9-9-9--9-9-9-9--5-5-5--5-5--4------------------------------|
E|-7-7-7-7--7-7-7-7--7-7-7-7--3-3-3--3-3--2------------------------------|

I'm so sick of when thay say...
(Palm Mute)
  Bm        G      F#  Bm      G      F#    E       Bm       G
e|--------------------------------------------------------------------------|
B|--------------------------------------------------------------------------|
G|--------------------------------------------------------------------------|
D|-9-9-9-9--5-5-5--4-4--9-9-9-9--5-5-5--4-4--9-9-9-9--5-5-5-----------------|
A|-9-9-9-9--5-5-5--4-4--9-9-9-9--5-5-5--4-4--5-5-5-5--4-4-4-----------------|
E|-7-7-7-7--3-3-3--2-2--7-7-7-7--3-3-3--2-2--7-7-7-7--3-3-3-----------------|

But i know its a lie...
  Bm        G      F#
  Em       Bm    A
e|---------------------------------------------------------------------------|
B|---------------------------------------------------------------------------|
G|----------8-8--6-6---------------------------------------------------------|
D|-2-2-2-2--9-9--7-7---------------------------------------------------------|
A|-2-2-2-2--7-7--7-7---------------------------------------------------------|
E|----------7-7--5-5---------------------------------------------------------|

CH
This is the last night...

e|--------------------------------------------------------------------------|
B|-----------6-6-----------------6-6----------------------------------------|
G|-4-4--8-8--7-7--6-6--4-4--8-8--7-7--6-6--4-4------------------------------|
D|-5-5--9-9--7-7--7-7--5-5--9-9--7-7--7-7--5-5------------------------------|
A|-5-5--9-9--5-5--7-7--5-5--9-9--5-5--7-7--5-5------------------------------|
E|-3-3--7-7-------5-5--3-3--7-7-------5-5--3-3------------------------------|

The last night...
  G    B    D    A    G    B    D    A    G
e|--------------------------------------------------------------------------|
B|-----------6-6-----------------6-6----------------------------------------|
G|-4-4--8-8--7-7--6-6--4-4--8-8--7-7--6-6--4-4------------------------------|
D|-5-5--9-9--7-7--7-7--5-5--9-9--7-7--7-7--5-5------------------------------|
A|-5-5--9-9--5-5--7-7--5-5--9-9--5-5--7-7--5-5------------------------------|
E|-3-3--7-7-------5-5--3-3--7-7-------5-5--3-3------------------------------|

The last night away from me...
   Em               G                 B                Em
e|--------------------------------------------------------------------------|
B|--------------------------------------------------------------------------|
G|-------------------4-4-4-4--4-4-4-4--8-8-8-8--8-8-8-8---------------------|
G|-2-2-2-2--2-2-2-2--5-5-5-5--5-5-5-5--9-9-9-9--9-9-9-9--2-2-2-2--2-2-2-2---|
A|-2-2-2-2--2-2-2-2--5-5-5-5--5-5-5-5--9-9-9-9--9-9-9-9--2-2-2-2--2-2-2-2---|
E|-------------------3-3-3-3--3-3-3-3--7-7-7-7--7-7-7-7---------------------|

                     (The night is so long when...)
   B       A         G                 B                Em
e|--------------------------------------------------------------------------|
B|--------------------------------------------------------------------------|
G|-8-8-8-8--6-6-6-6---4-4-4-4--4-4-4-4--8-8-8-8--8-8-8-8--------------------|
D|-9-9-9-9--7-7-7-7---5-5-5-5--5-5-5-5--9-9-9-9--9-9-9-9--2-2-2-2--2-2-2-2--|
A|-9-9-9-9--7-7-7-7---5-5-5-5--5-5-5-5--9-9-9-9--9-9-9-9--2-2-2-2--2-2-2-2--|
E|-7-7-7-7--5-5-5-5---3-3-3-3--3-3-3-3--7-7-7-7--7-7-7-7--------------------|

                    (tonight...)
   B       A        E
e|---------------------------------------------------------------------------|
B|---------------------------------------------------------------------------|
G|-8-8-8-8--6-6-6-6----------------------------------------------------------|
D|-9-9-9-9--7-7-7-7--2-2-2-2-2-2-2-2-2-2-2-2-2-2-2-2-2-2-2-2-2-2-2-2-2-2-2-2-|
A|-9-9-9-9--7-7-7-7--2-2-2-2-2-2-2-2-2-2-2-2-2-2-2-2-2-2-2-2-2-2-2-2-2-2-2-2-|
E|-7-7-7-7--5-5-5-5----------------------------------------------------------|

CH
This is the last night...
   G    B    D    A    G    B    D    A    G
e|--------------------------------------------------------------------------|
B|-----------6-6-----------------6-6----------------------------------------|
G|-4-4--8-8--7-7--6-6--4-4--8-8--7-7--6-6--4-4------------------------------|
D|-5-5--9-9--7-7--7-7--5-5--9-9--7-7--7-7--5-5------------------------------|
A|-5-5--9-9--5-5--7-7--5-5--9-9--5-5--7-7--5-5------------------------------|
E|-3-3--7-7-------5-5--3-3--7-7-------5-5--3-3------------------------------|


  G    B    D    A    G    B    D    A    G
e|--------------------------------------------------------------------------|
B|-----------6-6-----------------6-6----------------------------------------|
G|-4-4--8-8--7-7--6-6--4-4--8-8--7-7--6-6--4-4------------------------------|
D|-5-5--9-9--7-7--7-7--5-5--9-9--7-7--7-7--5-5------------------------------|
A|-5-5--9-9--5-5--7-7--5-5--9-9--5-5--7-7--5-5------------------------------|
E|-3-3--7-7-------5-5--3-3--7-7-------5-5--3-3------------------------------|


   Em                G
e|--------------------------------------------------------------------------|
B|--------------------------------------------------------------------------|
G|-------------------4-4-4-4--4-4-4-4---------------------------------------|
D|-2-2-2-2--2-2-2-2--5-5-5-5--5-5-5-5---------------------------------------|
A|-2-2-2-2--2-2-2-2--5-5-5-5--5-5-5-5---------------------------------------|
E|-------------------3-3-3-3--3-3-3-3---------------------------------------|

============================================================================

Ok there is your tab for guitar. I'm not shure what shes playing on the keybord, but my 
is, at lest for the frist part is that shes playing around with Bm, G, F# but i don't know.

have fun, and leve comments if you find a mistake...

-mike    

Added On December 12th, 2013

SHARE

Comments

blog comments powered by Disqus

VERSIONS

ADVERTISEMENT