Slipknot Tabs

Vermilion Part 2

2 versions

TAB

            -------------------------------------------------------------------------------
			     Vermilion Pt. 2 - Slipknot
Words and Music by: M. Shawn Crahan, Chris Fehn, Paul Gray, Nathan Jordison, Corey Taylor,
                    Mick Thompson, and Sid Wilson.
-------------------------------------------------------------------------------

Tabbed by: [travis]
Email: syn_gates_punk14@msn.com

Tuning: B F# B E G# C# (low to high)
All acoustic.

This is from the official tab book.


Intro:
Guitar 1:
C|---------------------------------------------------------------------------|
G|---------------------------------------------------------------------------|
E|-4------6------------------------------------------------------------------|
B|---------------(5)p4-------------------------------------------------------|
F|---------------------------------------------------------------------------|
B|---------------------------------0~----------------------------------------|

Guitar 2:
C|-------------------------------------------------------------------------------|
G|-------------------------------------------------------------------------------|
E|-----------------------------------------------7---7-7-7---7--7----7-7-7-7-7-0-|
B|12-12----12-12--12-------12----12-12--12-12-0--x---x-x-x---x--x----x-x-x-x-x-0-|
F|-9--9-9---9--9--10----10--9--9--9--9--10--9-0--5-5-5-5-5-5-5--5\4--4-4-4-4-4-0-|
B|-9----9--11------9--9--9--9--9-----9---9--9----0-0-0-0---0---------0---0---0---|


Play  the intro twice.

++++++++++++++++++++++++++++++++++++++++++++++++++++++++++++++++++++++++++++++++
Verse:
Play the intro 4 more times now.
"She seemed dressed in all of me, stretched across my shame. All the torment and the pain
leaked through and covered me. I'd do anything to haver her to myself, just to have her for 
myself. Now I don't know what to do, I don't know what to do."


Guitar 1:
"                                          when she makes me sad."
C|---------------------------------------------------------------------------|
G|-`1--------------------------------------`5--------------------------------|
E|-`0--------------------------------------`2--------------------------------|
B|-`2------------------------------------------------------------------------|
F|-`3------------------------------------------------------------------------|
B|---------------------------------------------------------------------------|
 The ` means you strum that chord up with one strum.

Guitar 2:
C|----0---0--------------------0----0---0------------------------------------|
G|-1--1---1--1--1-1-1-1--1-----1----1---1----1-----1-------------------------|
E|-0--0------0--0-0-0-0--0-----0----0---0----0-----0-------------------------|
B|-2--2------2--2-2-2-2--2---2----2-----2-------2----------------------------|
F|-3---------3--3-3-3-3--3---3----3-----3--3----3----------------------------|
B|---------------------------------------------------------------------------|

++++++++++++++++++++++++++++++++++++++++++++++++++++++++++++++++++++++++++++++++++++
Interlude:
Guitar 1:
C|---------------------------------------------------------------------------|
G|---------------------------------------------------------------------------|
E|---------------------------------------------------------------------------|
B|-0-------------------------------0-----------------------------------------|
F|-0-------------------------------0-----------------------------------------|
B|-0-------------------------------0-----------------------------------------|


C|---------------------------------------------------------------------------|
G|---------------------------------------------------------------------------|
E|-7--7-7-7-7-7-7----7-7-7-7--7-7--7--7-7-7-7-7-7-----7-7-7-7--7-------------|
B|-x--x-x-x-x-x-x----x-x-x-x--x-x--x--x-x-x-x-x-x-----x-x-x-x--x--0----------|
F|-5--5-5-5-5-5-5----5-5-5-5--5-5--5--5-5-5-5-5-5-----5-5-5-5--5--0----------|
B|-0--0-0-0-0-0---0--7-7-7-6--6-6--0--0-0-0-0-0----0--7-7-7-6--6-------------|

++++++++++++++++++++++++++++++++++++++++++++++++++++++++++++++++++++++++++++++++++++
Play the verse again.

Play the Interlude again also.

+++++++++++++++++++++++++++++++++++++++++++++++++++++++++++++++++++++++++++++++++
Chorus:
Guitar 1:
"But I won't let this build up inside of me."
C|----0---------------0-------0--------0------0------------------------------|
G|------------10-------------------------------------------------------------|
E|-------10-------10-------------10------10----------------------------------|
B|-12---------------------12-------------------------------------------------|
F|---------------------------------------------------------------------------|
B|---------------------------------------------------------------------------|

Guitar 2:
C|---0------0---------0----0--------0-----0-------0----0---------------------|
G|---6---6----------6----6--------6----6--------6---6------------------------|
E|---7--------------7----7--------7----7--------7---7------------------------|
B|---------------------------------------------------------------------------|
F|---------------------------------------------------------------------------|
B|-8------------7--------------0--------------3------------------------------|

Guitar 1:
"I won't let this build up inside of me."
C|-----0------------------0--------0---------------------0-------------------|
G|--------------10------------11------------10-------------------------------|
E|---------10-------10-----------------10--------10--------------------------|
B|-12------------------------------------------------------------------------|
F|---------------------------------------------------------------------------|
B|---------------------------------------------------------------------------|

Guitar 2:
C|-------0----0--------0------0---------0------0----------0---------0--------|
G|----6----6--------6-----6----------6-----6---------6---------6-------------|
E|----7----7--------7-----7----------7-----7---------7---------7-------------|
B|---------------------------------------------------------------------------|
F|---------------------------------------------------------------------------|
B|-8-------------7---------------0-----------------3-------------------------|

For the rest of the song, you're basically playing all of this tab over again.

That's pretty much the whole song. Rate it and comment it.
[travis]    

Added On December 16th, 2013

SHARE

Comments

blog comments powered by Disqus

VERSIONS

ADVERTISEMENT