Smashing Pumpkins Tabs

Aeroplane Flies High

4 versions

TAB

            Aeroplane Flies High Tab by Smashing Pumpkins


The Smashing Pumpkins - Aeroplane Flies High

This is definitely one of the better songs on the b-sides and
rarities collection, "Judas 0".  It is played in dropped D tuning half
a step down.


Intro:
e-----------------------------------|
b-----------------------------------|
g-----------------------------------|
d---3-3-3-3-3-3-3-3-1-1-1-1-0-0-0-0-|
a---3-3-3-3-3-3-3-3-1-1-1-1-0-0-0-0-|
E---3-3-3-3-3-3-3-3-1-1-1-1-0-0-0-0-|

Verse(which is played throughout the 95% of the song):
e-----------------------------------------------------------------|
b-----------------------------------------------------------------|
g-----------------------------------------------------------------|
d-7-7-7-7-7-7-7-7-7-7-7-10-10-5-5-3-3-3-3-3-3-3-3-1-1-1-1-0-0-0-0-|
a-7-7-7-7-7-7-7-7-7-7-7-10-10-5-5-3-3-3-3-3-3-3-3-1-1-1-1-0-0-0-0-|
E-7-7-7-7-7-7-7-7-7-7-7-10-10-5-5-3-3-3-3-3-3-3-3-1-1-1-1-0-0-0-0-|


At the end of the song I'm pretty sure you just strum the intro a few
times.  There is also some awesome lead parts that I just don't feel
like figuring out.


PATRICK    

Added On December 12th, 2013

SHARE

Comments

blog comments powered by Disqus

VERSIONS

ADVERTISEMENT