TAB

            -------------------------------------------------------------------------------
                             ANTI-HERO - Smashing Pumpkins
-------------------------------------------------------------------------------
Tabbed by: Jake H.
E-mail: jakehmw@gmail.com
-------------------------------------------------------------------------------
Tuning: Half-Step Down (Eb/D#)
Q=122
4/4 Time


Verse: (Palm-Muted)

  G               A#      D#
  E E E E E E E E E E E E E E E E
e|---------------|---------------|
B|---------------|---------------|
G|---------------|4-4-4----------|
D|6-6-6-6-6-6-6--|4-4-4---2-2-2--|
A|6-6-6-6-6-6-6-0|2-2-2-0-2-2-2-0|
E|4-4-4-4-4-4-4-0|------0-0-0-0-0| [x9]

  G               A#      D#
  E E E E E E E E E E E E E
e|---------------|---------------|
B|---------------|---------------|
G|---------------|4-4-4----------|
D|6-6-6-6-6-6-6--|4-4-4---2------|
A|6-6-6-6-6-6-6-0|2-2-2-0-2------|
E|4-4-4-4-4-4-4-0|------0-0------|


Chorus: (w/ Distortion)

  D#            A#    D#    G           F
  Q E E E E E E Q E E Q E E Q E E E E Q Q E E E E E E
e|0-0-0-0-0-0-0|------X-X-X|-----------|-------------|
B|0-0-0-0-0-0-0|4-4-4-0-0-0|-----------|-------------|
G|1-1-1-1-1-1-1|4-4-4-1-1-1|-----------|-------------|
D|2-2-2-2-2-2-2|4-4-4-2-2-2|6-6-6-6-6--|4-4-4-4-4-4-4|
A|2-2-2-2-2-2-2|2-2-2-2-2-2|6-6-6-6-6-0|4-4-4-4-4-4-4|
E|0-0-0-0-0-0-0|------0-0-0|4-4-4-4-4-0|2-2-2-2-2-2-2|

  D#            A#    D#    G           F
  Q E E E E E E Q E E Q E E Q E E E E Q
e|0-0-0-0-0-0-0|------X-X-X|-----------|-------------|
B|0-0-0-0-0-0-0|4-4-4-0-0-0|-----------|-------------|
G|1-1-1-1-1-1-1|4-4-4-1-1-1|-----------|-------------|
D|2-2-2-2-2-2-2|4-4-4-2-2-2|6-6-6-6-6--|4------------|
A|2-2-2-2-2-2-2|2-2-2-2-2-2|6-6-6-6-6-0|4------------|
E|0-0-0-0-0-0-0|------0-0-0|4-4-4-4-4-0|2------------| (Ring the F out for 2 measures)


Post-Chorus: (Same as Verse but w/ distortion and no palm-muting)

  G               A#      D#
  E E E E E E E E E E E E E E E E
e|---------------|---------------|
B|---------------|---------------|
G|---------------|4-4-4----------|
D|6-6-6-6-6-6-6--|4-4-4---2-2-2--|
A|6-6-6-6-6-6-6-0|2-2-2-0-2-2-2-0|
E|4-4-4-4-4-4-4-0|------0-0-0-0-0| [x6]


Don't do anything for 3 measures after the Post-Chorus


Verse 2: (Palm-Muted)

  G               A#      D#
  E E E E E E E E E E E E E E E E
e|---------------|---------------|
B|---------------|---------------|
G|---------------|4-4-4----------|
D|6-6-6-6-6-6-6--|4-4-4---2-2-2--|
A|6-6-6-6-6-6-6-0|2-2-2-0-2-2-2-0|
E|4-4-4-4-4-4-4-0|------0-0-0-0-0| [x3]

  G               A#
  E E E E E E E E E E E E E Q E
e|---------------|-------------|
B|---------------|-------------|
G|---------------|4-4-4-4-4----|
D|6-6-6-6-6-6-6--|4-4-4-4-4----|
A|6-6-6-6-6-6-6-0|2-2-2-2-2----|
E|4-4-4-4-4-4-4-0|-------------|


Chorus: (w/ Distortion)

  D#            A#    D#    G           F
  Q E E E E E E Q E E Q E E Q E E E E Q Q E E E E E E
e|0-0-0-0-0-0-0|------X-X-X|-----------|-------------|
B|0-0-0-0-0-0-0|4-4-4-0-0-0|-----------|-------------|
G|1-1-1-1-1-1-1|4-4-4-1-1-1|-----------|-------------|
D|2-2-2-2-2-2-2|4-4-4-2-2-2|6-6-6-6-6--|4-4-4-4-4-4-4|
A|2-2-2-2-2-2-2|2-2-2-2-2-2|6-6-6-6-6-0|4-4-4-4-4-4-4|
E|0-0-0-0-0-0-0|------0-0-0|4-4-4-4-4-0|2-2-2-2-2-2-2|

  D#            A#    D#    G           F
  Q E E E E E E Q E E Q E E Q E E E E Q
e|0-0-0-0-0-0-0|------X-X-X|-----------|-------------|
B|0-0-0-0-0-0-0|4-4-4-0-0-0|-----------|-------------|
G|1-1-1-1-1-1-1|4-4-4-1-1-1|-----------|-------------|
D|2-2-2-2-2-2-2|4-4-4-2-2-2|6-6-6-6-6--|4------------|
A|2-2-2-2-2-2-2|2-2-2-2-2-2|6-6-6-6-6-0|4------------|
E|0-0-0-0-0-0-0|------0-0-0|4-4-4-4-4-0|2------------| (Ring the F out for 2 measures)


Post-Chorus: (Same as Verse but w/ distortion and no palm-muting)

  G               A#      D#
  E E E E E E E E E E E E E E E E
e|---------------|---------------|
B|---------------|---------------|
G|---------------|4-4-4----------|
D|6-6-6-6-6-6-6--|4-4-4---2-2-2--|
A|6-6-6-6-6-6-6-0|2-2-2-0-2-2-2-0|
E|4-4-4-4-4-4-4-0|------0-0-0-0-0| [x6]


Wait 2 measures with the D# ringing out


Interlude:

  D#                      A#
  E E E E E E E E E E E E E Q E
e|---------------|-------------|
B|---------------|-------------|
G|----1-------1--|----1--------|
D|---------------|--------2/4~-|
A|--2---2---2---2|--2---2------|
E|0-------0------|0------------| [X2]


Post-Chorus: (Same as Verse but w/ distortion and no palm-muting)

  G               A#      D#
  E E E E E E E E E E E E E E E E
e|---------------|---------------|
B|---------------|---------------|
G|---------------|4-4-4----------|
D|6-6-6-6-6-6-6--|4-4-4---2-2-2--|
A|6-6-6-6-6-6-6-0|2-2-2-0-2-2-2-0|
E|4-4-4-4-4-4-4-0|------0-0-0-0-0| [x8]

End on D# and let it fade away.


There you have it! Thanks for viewing my tab and please rate and tell me if there are 
any mistakes you may
find. Thanks!

************************************

| /   slide up
| ~   vibrato
| x   Mute note

************************************    

Added On December 24th, 2014

SHARE

Comments

blog comments powered by Disqus

ADVERTISEMENT