TAB

            Smashing Pumpkins
                    "Gossamer"


For standard tuning (the pumpkins use C tuning)
If you want to play it in C, you must play the
notes accordingly and rearrange to lower octave.

INTRO
 Guitar 1
|----------------------------------|
|----------------------------------|
|----------------------------------|
|-5--------------------------------|
|-5--------------------------------|
|-3--------------------------------|
 Guitar 2
|----------------------------------|
|---8--9---------------------------|
|---------8--9-8h9p8\6-8-6h8p6\4---|
|----------------------------------|
|----------------------------------|
|----------------------------------|

(fig.2) - 2 times
 Guitar 1 - second guitar plays higher terzas
|--------------------------------------7--9-----------|
|--------------------------------7--9--------------7--|
|-----------------------6--8--9--------------8--9-----|
|-11--------------6--9--------------------------------|
|-11-----6--7--9--------------------------------------|
|-9---9-----------------------------------------------|

|-----------------------------------------------------|
|-9~-7h9p7\5-7~-5h7p5\4-5~-4h5p4\2-4~b5r5-2h4p2p0-2---|
|-----------------------------------------------------|
|-----------------------------------------------------|
|-----------------------------------------------------|
|-----------------------------------------------------|
      *terza arranged for one guitar                     (end fig.2)
|-----7-6-7--------------------------------------------------------|
|-----9-7-9-7~b9r7--5~-4h5p4\2-4~-2h4p2p0-2~--------------------2--|
|-----------8~b9r8---------------------------4h6p4\1-4~b6r4-1h4----|
|-11---------------------------------------------------------------|
|-11---------------------------------------------------------------|
|-9----------------------------------------------------------------|

      contact: dmitrij.leppee@email.t-com.hr    

Added On December 16th, 2013

SHARE

Comments

blog comments powered by Disqus

ADVERTISEMENT