Snow Patrol Tabs

Gleaming Auction

2 versions

TAB

            Gleaming Auction Tab by Snow Patrol


3. Gleaming Auction

VERSE
several little things happenin, here's some...

e---------|----------|---------|------------------
b---------|----------|---------|------------------
g---------|----------|---------|------------------
D-(0)-----|-(0)------|---------|(0)---------------
A-5-------|-2--------|-(0)-----|-2----------------
E---------|----------|-5-------|------------------
...you'll hear it but each of these is played 2x8 times

another bit in the verse...
e---------|----------|----------|---------|-
b---------|----------|----------|---------|-
g---------|----------|----------|---------|-
D-0-------|-0--------|-0--------|-0-------|-
A-9-------|-5--------|-9--------|-5-------|-
E---------|----------|----------|---------|-
Don't know whether you'll need a second guitarist here, as it doesn't sound right playing it by yourself.


e-----|-----|-----|-----|-----|-----|-
b-----|-----|-----|-----|-----|-----|-
g-----|-----|-----|-----|-4---|-----|-
D-5---|-----|-2---|-----|-4---|-5---|-
A-5---|-----|-2---|-----|-2---|-5---|-
E-3---|-----|-0---|-----|-----|-3---|-    

Added On December 12th, 2013

SHARE

Comments

blog comments powered by Disqus

VERSIONS

ADVERTISEMENT