Something For Kate Tabs

Ordinary World

1 versions

TAB

            BAND:        Something For Kate
SONG:        Ordinary World [Duran Duran Cover)

This is pretty much a rough guide on how to play this song, like
with the intro riff, you have to figure out the timing and all.
This is all my own work, so if you wish to claim credit for it or
use it on a personal site, please email me before hand.  Thanks!



INTRO:
------
 e|--0--0--0-----0--|--0--0-----------|
 B|--0--0--3--2--0--|--0--0--3--2--3--|
 G|--4--2--2--2--4--|--4--2--2--2--0--|
 D|--4--4--0--2--2--|--4--4--0--2--2--|
 A|--2--4--0--4--2--|--2--4--0--4--3--|
 E|-----2--------0--|-----2-----------|

INTRO RIFF:
 e|--12--11--9--7--14--12--11--9--7--7----7----7-----7-----7--5--|
 B|-----------------------------------------5-----5-----5--------|
 G|--------------------------------------------------------------|
 D|--------------------------------------------------------------|
 A|--------------------------------------------------------------|
 E|--------------------------------------------------------------|


VERSE:
------
 e|--4--4--0--2--|--4--4-----0--|
 B|--5--5--0--2--|--5--4-----0--|
 G|--6--6--4--3--|--6--4--8--9--|
 D|--6--6--2--4--|--6--6--8--9--|
 A|--4--4--2--4--|--4--6--6--7--|
 E|--------0--2--|-----4-----0--|


CHORUS:
-------
 e|--0--0--------0--|
 B|--0--0--3--2--0--|
 G|--8--2--2--2--4--|
 D|--9--4--0--2--2--|
 A|--9--4--0--4--2--|
 E|--7--2--------0--|


BRIDGESOLO: Simply play the intro an octave lower and muck around with the notes.
------------
 e|---------------------------------------------------------------|
 B|---------------------------------------------------------------|
 G|--9---8---6---4---11--9---8---6---4---4----4----4-----4-----4--|bend the last note
 D|---------------------------------------------2-----2-----2-----| the second time
 A|---------------------------------------------------------------|
 E|---------------------------------------------------------------|    

Added On December 16th, 2013

SHARE

Comments

blog comments powered by Disqus

ADVERTISEMENT