TAB

            Seasick - Something For Kate

Capo 2 
 
Verse: 
'You make it looks so easy...' 
 
Gtr. 1 (electric) 
   1   2   3   4   5   6   1   2   3   4   5   6 
e|-------------------------------------------------| 
B|-------------0-----------------------------------| 
G|-------5-----------5---0-----------0-------0---0-| 
D|-----7-----7-----7---7---------5---------7-------| 
A|-0---------------------------7-------6/7---------| 
E|-------------------------0-----------------------| 
 
   1   2   3   4   5   6   1   2   3   4   5   6 
e|-------------------------------------------------| 
B|-------------5-0---------------------3---1---0---| 
G|-------0-----------0---0-------0-----0---0---0---| 
D|-----4-----4---------4-------1-----1-------------| 
A|-6---------------6-------3-----------------------| 
E|-------------------------------------------------| 
 
 
Chorus: 
'If i could leave here today...' 
 
   1   2   3   4   5   6   1   2   3   4   5   6 
e|-------------------------------------------------| 
B|-------------3-----------------------3-----------| 
G|---------0-------0---------------0-------0-------| 
D|-----2---------------2-------2---------------2---| 
A|-0-----------------------0-----------------------| 
E|-------------------------------------------------| 
 
   1   2   3   4   5   6   1   2   3   4   5   6 
e|-0---0-0-0-0-0---0-0-0-0-0---0-0-0-0-0---0-0-0-0-| 
B|-1---1-1-1-1-1---1-1-1-1-0---0-0-0-0-0---0-0-0-0-| 
G|-3---3-3-3-3-3---3-3-3-3-0---0-0-0-0-0---0-0-0-0-| 
D|-2---2-2-2-2-2---2-2-2-2-2---2-2-2-2-2---2-2-2-2-| 
A|-3---3-3-3-3-3---3-3-3-3-2-----------2-----------| 
E|-------------------------0-----------0-----------| 
 
   1   2   3   4   5   6   1   2   3   4   5   6 
e|-0---0-0-0-0-0---0-0-0-0-0---0-0-0-0-0---0-0-0-0-| 
B|-3---3-3-3-3-3---3-3-3-3-3---3-3-3-3-3---3-3-3-3-| 
G|-2---2-2-2-2-2---2-2-2-2-2---2-2-2-2-2---2-2-2-2-| 
D|-0---0-0-0-0-0---0-0-0-0-0---0-0-0-0-0---0-0-0-0-| 
A|-0-----------------------0-----------------------| 
E|-2-----------------------2-----------------------| 
 
   1   2   3   4   5   6   1   2   3   4   5   6 
e|-0---0-0-0-0-0---0-0-0-0-0---0-0-0-0-0---0-0-0-0-| 
B|-1---1-1-1-1-1---1-1-1-1-0---0-0-0-0-0---0-0-0-0-| 
G|-3---3-3-3-3-3---3-3-3-3-0---0-0-0-0-0---0-0-0-0-| 
D|-2---2-2-2-2-2---2-2-2-2-2---2-2-2-2-2---2-2-2-2-| 
A|-3---3-3-3-3-3---3-3-3-3-2-----------2-----------| 
E|-------------------------0-----------0-----------| 
 
   1   2   3   4   5   6   1   2   3   4   5   6 
e|-0---0-0-0-0-0---0-0-0-0-0---0-0-0-0-0---0-0-0-0-| 
B|-3---3-3-3-3-3---3-3-3-3-3---3-3-3-3-3---3-3-3-3-| 
G|-2---2-2-2-2-2---2-2-2-2-2---2-2-2-2-2---2-2-2-2-| 
D|-0---0-0-0-0-0---0-0-0-0-0---0-0-0-0-0---0-0-0-0-| 
A|-0-----------------------0-----------------------| 
E|-2-----------------------2-----------------------| 
 
   1   2   3   4   5   6   1   2   3   4   5   6 
e|-0---0-0-0-0-0---0-0-0-0-0---0-0-0-0-0---0-0-0-0-| 
B|-1---1-1-1-1-1---1-1-1-1-0---0-0-0-0-0---0-0-0-0-| 
G|-3---3-3-3-3-3---3-3-3-3-0---0-0-0-0-0---0-0-0-0-| 
D|-2---2-2-2-2-2---2-2-2-2-2---2-2-2-2-2---2-2-2-2-| 
A|-3---3-3-3-3-3---3-3-3-3-2-----------2-----------| 
E|-------------------------0-----------0-----------| 
 
   1   2   3   4   5   6   1   2   3   4   5   6 
e|-0---0-0-0-0-0---0-0-0-0-0---0-0-0-0-0---0-0-0-0-| 
B|-3---3-3-3-3-3---3-3-3-3-3---3-3-3-3-3---3-3-3-3-| 
G|-2---2-2-2-2-2---2-2-2-2-2---2-2-2-2-2---2-2-2-2-| 
D|-0---0-0-0-0-0---0-0-0-0-0---0-0-0-0-0---0-0-0-0-| 
A|-0-----------------------0-----------------------| 
E|-2-----------------------2-----------------------| 
 
Bridge 
 
Gtr. 2 (electric) 
Capo 2 
   5     6     |  1     2     3     4     5     6     1     2     3     4     5     6 
e|-x--x--x--x--|--------------------------------------------------------------------------| 
B|-x--x--x--x--|-----------8--------10-------8-----------------8--------10-------8--------| 
G|-x--x--x--x--|-/7--8--9--------9--------9--------9--7--8--9--------9-----9--------9-----| 
D|-x--x--x--x--|--------------------------------------------------------------------------| 
A|-x--x--x--x--|--------------------------------------------------------------------------| 
E|-x--x--x--x--|--------------------------------------------------------------------------| 
 
   1     2     3     4     5     6     1     2     3     4     5     6 
e|-------------------------------------------------------------------------| 
B|----------8--------10-------8-----------------8--------10-------8--------| 
G|/7--8--9--------9--------9--------9--7--8--9--------9-----9--------9-----| 
D|-------------------------------------------------------------------------| 
A|-------------------------------------------------------------------------| 
E|-------------------------------------------------------------------------| 
 
   1     2     3     4     5     6     1     2     3     4     5     6 
e|-------------------------------------------------------------------------| 
B|----------8--------10-------8-----------------8--------10-------8--------| 
G|/7--8--9--------9--------9--------9--7--8--9--------9-----9--------9-----| 
D|-------------------------------------------------------------------------| 
A|-------------------------------------------------------------------------| 
E|-------------------------------------------------------------------------| 
 
   1     2     3     4     5     6     1     2     3     4     5     6 
e|-------------------------------------------------------------------------| 
B|----------8--------10-------8-----------------8--------10-------8--------| 
G|/7--8--9--------9--------9--------9--7--8--9--------9-----9--------9-----| 
D|-------------------------------------------------------------------------| 
A|-------------------------------------------------------------------------| 
E|-------------------------------------------------------------------------| 
 
'I would...' 
 
   1     2     3     4     5     6     1     2     3     4     5     6 
e|-7--7--7--0--0--0--7--7--7--0--0--0--7--7--7--0--0--0--7--7--7--0--0--0--| 
B|-0--0--0--0--0--0--0--0--0--0--0--0--0--0--0--0--0--0--0--0--0--0--0--0--| 
G|-------------------------------------------------------------------------| 
D|-------------------------------------------------------------------------| 
A|-------------------------------------------------------------------------| 
E|-------------------------------------------------------------------------| 
 
   1     2     3     4     5     6     1     2     3     4     5     6 
e|-7--7--7--0--0--0--10-10-10-7--7--7--6--6--6--0--0--0--3--3--3--0--0--0--| 
B|-0--0--0--0--0--0--0--0--0--0--0--0--0--0--0--0--0--0--0--0--0--0--0--0--| 
G|-------------------------------------------------------------------------| 
D|-------------------------------------------------------------------------| 
A|-------------------------------------------------------------------------| 
E|-------------------------------------------------------------------------| 
 
...i can't make out the next two bars... 
 
End of Bridge 
 
'You make it looks so easy...' 
 
   1   2   3   4   5   6   1   2   3   4   5   6 
e|-------------x---x-x-x---------------x---x-x-x---| 
B|-0-----------x---x-x-x---------------x---x-x-x---| 
G|-5-----------x---x-x-x---0-----------x---x-x-x---| 
D|-7-----------x---x-x-x---5-----------x---x-x-x---| 
A|-0-----------x---x-x-x---7-----------x---x-x-x---| 
E|-------------x---x-x-x---0-----------x---x-x-x---| 
 
   1   2   3   4   5   6   1   2   3   4   5   6 
e|-------------x---x-x-x---------------x---x-x-x---| 
B|-0-----------x---x-x-x---0-----------x---x-x-x---| 
G|-0-----------x---x-x-x---0-----------x---x-x-x---| 
D|-4-----------x---x-x-x---1-----------x---x-x-x---| 
A|-6-----------x---x-x-x---3-----------x---x-x-x---| 
E|-------------x---x-x-x---------------x---x-x-x---| 
 
   1   2   3   4   5   6   1   2   3   4   5   6 
e|-------------x---x-x-x---------------x---x-x-x---| 
B|-0-----------x---x-x-x---------------x---x-x-x---| 
G|-5-----------x---x-x-x---0-----------x---x-x-x---| 
D|-7-----------x---x-x-x---5-----------x---x-x-x---| 
A|-0-----------x---x-x-x---7-----------x---x-x-x---| 
E|-------------x---x-x-x---0-----------x---x-x-x---| 
 
   1   2   3   4   5   6   1   2   3   4   5   6 
e|-------------x---x-x-x---------------------------| 
B|-0-----------x---x-x-x---0-----------3-----------| 
G|-0-----------x---x-x-x---0---------------0-------| 
D|-4-----------x---x-x-x---1-------------------0---| 
A|-6-----------x---x-x-x---3-----------------------| 
E|-------------x---x-x-x---------------------------| 
 
Final Chorus: 
 
   1   2   3   4   5   6   1   2   3   4   5   6 
e|-------------------------------------------------| 
B|-------------3-----------------------3-----------| 
G|---------0-------0---------------0-------0-------| 
D|-----2---------------2-------2---------------2---| 
A|-0-----------------------0-----------------------| 
E|-------------------------------------------------| 
 
   1   2   3   4   5   6   1   2   3   4   5   6 
e|-0---0-0-0-0-0---0-0-0-0-0---0-0-0-0-0---0-0-0-0-| 
B|-1---1-1-1-1-1---1-1-1-1-0---0-0-0-0-0---0-0-0-0-| 
G|-3---3-3-3-3-3---3-3-3-3-0---0-0-0-0-0---0-0-0-0-| 
D|-2---2-2-2-2-2---2-2-2-2-2---2-2-2-2-2---2-2-2-2-| 
A|-3---3-3-3-3-3---3-3-3-3-2-----------2-----------| 
E|-------------------------0-----------0-----------| 
 
   1   2   3   4   5   6   1   2   3   4   5   6   1   2   3   4   5   6   
e|-0---0-0-0-0-0---0-0-0-0-0---0-0-0-0-0---0-0-0-0-0---0-0-0-0-0---0-0-0-0-| 
B|-3---3-3-3-3-3---3-3-3-3-5---1-1-1-1-1---1-1-1-1-0---0-0-0-0-0---0-0-0-0-| 
G|-2---2-2-2-2-2---2-2-2-2-3---3-3-3-3-3---3-3-3-3-0---0-0-0-0-0---0-0-0-0-| 
D|-0---0-0-0-0-0---0-0-0-0-2---2-2-2-2-2---2-2-2-2-2---2-2-2-2-2---2-2-2-2-| 
A|-0-----------------------3---3-3-3-3-3---3-3-3-3-2-----------2-----------| 
E|-2-----------------------------------------------0-----------0-----------| 
 
   1   2   3   4   5   6   1   2   3   4   5   6   1   2   3   4   5   6   
e|-0---0-0-0-0-0---0-0-0-0-0---0-0-0-0-0---0-0-0-0-0---0-0-0-0-0---0-0-0-0-| 
B|-3---3-3-3-3-3---3-3-3-3-5---1-1-1-1-1---1-1-1-1-0---0-0-0-0-0---0-0-0-0-| 
G|-2---2-2-2-2-2---2-2-2-2-3---3-3-3-3-3---3-3-3-3-0---0-0-0-0-0---0-0-0-0-| 
D|-0---0-0-0-0-0---0-0-0-0-2---2-2-2-2-2---2-2-2-2-2---2-2-2-2-2---2-2-2-2-| 
A|-0-----------------------3---3-3-3-3-3---3-3-3-3-2-----------2-----------| 
E|-2-----------------------------------------------0-----------0-----------| 
 
   1   2   3   4   5   6   1   2   3   4   5   6   1   2   3   4   5   6   
e|-0---0-0-0-0-0---0-0-0-0-0---0-0-0-0-0---0-0-0-0-0---0-0-0-0-0---0-0-0-0-| 
B|-3---3-3-3-3-3---3-3-3-3-5---1-1-1-1-1---1-1-1-1-0---0-0-0-0-0---0-0-0-0-| 
G|-2---2-2-2-2-2---2-2-2-2-3---3-3-3-3-3---3-3-3-3-0---0-0-0-0-0---0-0-0-0-| 
D|-0---0-0-0-0-0---0-0-0-0-2---2-2-2-2-2---2-2-2-2-2---2-2-2-2-2---2-2-2-2-| 
A|-0-----------------------3---3-3-3-3-3---3-3-3-3-2-----------2-----------| 
E|-2-----------------------------------------------0-----------0-----------| 
 
   1   2   3   4   5   6   1   2   3   4   5   6 
e|-0---0-0-0-0-0---0-0-0-0-0---0-0-0-0-0---0-0-0-0-| 
B|-3---3-3-3-3-3---3-3-3-3-3---3-3-3-3-3---3-3-3-3-| 
G|-2---2-2-2-2-2---2-2-2-2-2---2-2-2-2-2---2-2-2-2-| 
D|-0---0-0-0-0-0---0-0-0-0-0---0-0-0-0-0---0-0-0-0-| 
A|-0-----------------------0-----------------------| 
E|-2-----------------------2-----------------------| 
 
   1   2   3   4   5   6    
e|-------------------------|| 
B|-1-----------------------|| 
G|-0-----------------------|| 
D|-2-----------------------|| 
A|-3-----------------------|| 
E|-------------------------|| 
 
Order: 
 
Verse 
Chorus 
Verse 
Chorus 
Bridge 
End of Bridge 
Final Chorus 
 
Cheers.    

Added On December 16th, 2013

SHARE

Comments

blog comments powered by Disqus

ADVERTISEMENT