Soulfly Tabs

Last Of The Mohicans

1 versions

TAB

            |------------------------|
|------------------------|
|------------------------|
|------------------------|
|--6-0-6-0-6-0-6-0-6-0-7-|
|--6-0-6-0-6-0-6-0-6-0-7-|

|------------------------|
|------------------------|
|------------------------|
|------------------------|
|--8-8-8-8-11-11---------|
|----------------000000--|

|------------------------|
|------------------------|
|------------------------|
|------------------------|
|--0-3-0---0-3-0---0-3-6-|
|--0-3-0---0-3-0---0-3-6-|

|--------------------------|
|--------------------------|
|--------------------------|
|--------------------------|
|--1-0-0-1-0-0-1-0-0-1-0-0-|
|--1-0-0-1-0-0-1-0-0-1-0-0-|
pm==========================

|--------------------------|
|--------------------------|
|--------------------------|
|--------------------------|
|--1-0-1-0-1-0-1-0-1-0-4---|
|--1-0-1-0-1-0-1-0-1-0-4---|    

Added On December 16th, 2013

SHARE

Comments

blog comments powered by Disqus

ADVERTISEMENT