Soulfly Tabs

No hope No Fear

5 versions

TAB

            No Hope No Fear Tab by Soulfly


Soulfly is the best band ever.
This is the right way to play the song. The other guys pretty right
on with the solo thingy, but the rest is right here...

Intro
------------------------
------------------------
------------------------
------------------------
------------------------
-5-1-2-2-1-2-2-1-2-2-1-2

Intro cont. and main riff.
----------------------------------
----------------------------------
----------------------------------
----------------------------------
-5-1-2-2-1-2-2-1-2-2-1-2-222222222
-5-1-2-2-1-2-2-1-2-2-1-2-222222222

------------------------
------------------------
------------------------
------------------------
-/5-5--2-2--4-4--1-1/1-2
-/5-5--2-2--4-4--1-1/1-2

Play that part multiple times through, (listen to the song)
then when the verse comes play that as well, except palm mute it.

Bridge
-----------------------------
-----------------------------
-----------------------------
-----------------------------
-----------------------------
-5-1-2-2-1-2-2-1-2-2-1-555555
"FREEDOOOOOM

thats really it. very easy song, but very awesome
Brian- Soulfly1065@yahoo.com    

Added On December 12th, 2013

SHARE

Comments

blog comments powered by Disqus

VERSIONS

ADVERTISEMENT