Spiritualized Tabs

Born Never Asked

1 versions

TAB

            Born Never Asked Tab by Spiritualized


"Born Never Asked" by Laurie Anderson
on the Spiritualized Album "Pure Phase"
tabbed by john_coote@rocketmail.com 11/02/2005

Two chords in rythm

|G    |A    | ... repeat


The melody

e -----------------------------|----------------------------------|----|
B -----------------------------|----------------------------------|----|
G -----------------------------|----------------------------------|----|
D -----------10-12-------------|-----------10-12-13-12---------10-|----|
A --10-12-13-------10-13-------|--10-12-13-------------10-12-13---|----|
E --------------------------13-|----------------------------------|----|


e ------------------------------------|
B -----------------------------(11)---|
G ---------10----10-12-10-12-10-12----|   x 4
D ----9-12----12----------------------|
A -10---------------------------------|
E ------------------------------------|


e --------------------------------------------------|---------|
B -----------------------10-11-10-11-10-11-10-8-----|---------|
G -----------------10-12----------------------------|---  x 4-|
D -----------10-12----------------------------------|---------|
A --10-12-13----------------------------------------|---------|
E --------------------------------------------------|---------|    

Added On December 12th, 2013

SHARE

Comments

blog comments powered by Disqus

ADVERTISEMENT