TAB

            Independent Tab by Sportfreunde Stiller


Sportfreunde Stiller - Independent

A5: 	57xxxx
E5: 	x79xxx
F#5: 	x9 11xxx
D5: 	x57xxx


Intro:
-------------------------------------------------|
-------------------------------------------------|
-------------------------------------------------| 4mal
-6-7-6-7--9-9-9-9-9--11-11-11-11-11--7-7-7-7-7---|
-0-0-0-0--7-7-7-7-7---9--9--9--9--9--5-5-5-5-5---|
-------------------------------------------------|


A5         E5           F#5       D5
 Das Leben ist so wunderschön und ich bin mittendrin,
A5         E5             F#5  D5                  A5
 mein äußeres Erscheinungsbild ist in Marken gehüllt.
    E5              F#5     D5                      A5
Die Traumbilder der Werbung pflastern Stadt und Land,
            E5              F#5                D5
doch die Vermarktung meines Auftritts hab' ich selbst in der Hand.

A5 (wie Intro)  E5

        F#5          D5          A5          E5
Und ich frage mich gelegentlich, bin das ich
         F#5              D5               A5...
oder bin ich schon so wie die im Fernsehen?
Und ich frage mich gelegentlich, bin das ich
oder bin ich nur so wie sie mich gerne sehen?

In der Zeit der Supermarken avanciere ich zum Star
und denke heimlich an die Jahre als ich noch ein Junge war.
Meine softporno-ästhetischen no name- Klamotten
würden heute ohne Frage jeden Anzug toppen.

Und ich frage mich gelegentlich, bin das ich
oder bin ich schon so wie die im Fernsehen?
Und ich frage mich gelegentlich, bin das ich
oder bin ich nur so wie sie mich gerne sehen?

-----------------------------------------------|
-----------------------------------------------|
----------------------------7-6-4--7-6-4h6p4---| 3 mal
-6-7-6-7--9-9-9-9-9----------------------------|
-0-0-0-0--7-7-7-7-7----------------------------|
-----------------------------------------------|

-----------------------------------------------|
-----------------------------------------------|
--------------------------7-6-7-8-10-12--------|
---6-7-6-7--9-9-9-9-9--------------------------|
---0-0-0-0--7-7-7-7-7--------------------------|
-----------------------------------------------|

Und ich frage mich gelegentlich, bin das ich
oder bin ich schon so wie die im Fernsehen?
Und ich frage mich gelegentlich, bin das ich
oder bin ich nur so wie sie mich gerne sehen?
Oder bin ich schon so wie die im Fernsehen?
Oder bin ich schon so wie die im Fernsehen?    

Added On December 12th, 2013

SHARE

Comments

blog comments powered by Disqus

ADVERTISEMENT