Spunge Tabs

Roots

1 versions

TAB

            Roots Tab by Spunge


-------------------------------------------------------------------------------
			     Roots - Spunge
-------------------------------------------------------------------------------
Tabbed by:funeralforafrie

Okay so this is the intro to the song Roots by Spunge, its pretty damn good, ill
add more as I go along :) It actually sounds perfect :D as I say as I get better
at ska strokes ill add the verses etc!
Have fun!

Tuning:EADGBe

e|-----------------------------------------------------------------|
B|-----------------------------------------------------------------|
G|-7-7-7---7-7-7-7--7-7-7---7-7-7-7--7-7-7---7-7-7-7---------------|
D|-0-0-0-4-5-5-5-5--0-0-0-4-5-5-5-5--0-0-0-4-5-5-5-5---------------|
A|-----------------------------------------------------------------|
E|-----------------------------------------------------------------|

Then straight after the last bit you play

e|-----------------------------------------------------------------|
B|-----------------------------------------------------------------|
G|-7-7-7-7---------------------------------------------------------|
D|-9-9-9-9-5-4-0---------------------------------------------------|
A|-----------------------------------------------------------------|
E|-----------------------------------------------------------------|    

Added On December 12th, 2013

SHARE

Comments

blog comments powered by Disqus

ADVERTISEMENT