Stereolab Tabs

John Cage Bubblegum

1 versions

TAB

            STEREOLAB - JOHN CAGE BUBBLEGUM
ALMBUM: REFRIED ECTOPLASM (Switched On Volume 2)
soloriohead@hotmail.com

CHORDS:
   D    F/C    C    G/D    F     G
e--10----8-----3----10-----13----3----|
B--10----10----5----13-----13----3----|
G--11----10----5----13-----14----4----|
D--12----10----5----13-----15----5----|
A--12----8-----3----10-----15----5----|
E--10----8-----x----10-----13----3----|


D       F/C       C       G/D

D
C'est le plus beau et c'est le plus triste
F/C                C        G/D
C'est le plus beau  paysage du monde

D       F         C       G
Aiee yi yi....

The little riff:
e----3------------|
B----5 (bend)-----|
G-----------------|
D-----------------|
A-----------------|
E-----------------|


------------------------------------------------------------
NOTE: This tab was rescued from Planete Magique fan website.

Send corrections or contributions to:
soloriohead@hotmail.com    

Added On December 16th, 2013

SHARE

Comments

blog comments powered by Disqus

ADVERTISEMENT