Stereophonics Tabs

Check My Eyelids For Holes

2 versions

TAB

            Check My Eyelids For Holes Tab by Stereophonics


Check my eyelids for holes-Stereophonics

Music by-Kelly Jones
         Richard Jones
         Stuart Cable

Intro
    A      D 
e---------2-2--|
B--2-2-2--3-3--|
G--2-2-2--2-2--|
D--2-2-2-------|
A--------------|
E--------------| (Do this a couple of times)

Verse
    A        D
e----------2-2-2-2--|
B-2-2-2-2--3-3-3-3--|
G-2-2-2-2--2-2-2-2--|
D-2-2-2-2-----------|
A-------------------|
E-------------------| x4

Pre-Chorus
    Bm        G        D
e-2-2-2-2--3-3-3-3--2-2-2-2--|
B-3-3-3-3--3-3-3-3--3-3-3-3--|
G-4-4-4-4--0-0-0-0--2-2-2-2--|
D-4-4-4-4--0-0-0-0-----------|
A-2-2-2-2--2-2-2-2-----------|
E----------3-3-3-3-----------|

Chorus
      A       D
e-----------2-2-2-2--3-3-3-3--2-2-2-2--|
B--2-2-2-2--3-3-3-3--3-3-3-3--3-3-3-3--|
G--2-2-2-2--2-2-2-2--0-0-0-0--2-2-2-2--|
D--2-2-2-2-----------0-0-0-0-----------|
A--------------------2-2-2-2-----------|
E--------------------3-3-3-3-----------| 

Solo

Guitar 1

A       D        G        D

Guitar 2
(Double Stops) (Wah-Wah)
e--------xx--------xx--------xx----------|
B-5b-----xx-5b-----xx-5b-----xx-5-5-5-5--|
G-5b-----xx-5b-----xx-5b-----xx-5-5-5-5--|
D-----7--xx-----7--xx-----7--xx----------| 
A-----7--xx-----7--xx-----7--xx----------|
E--------xx--------xx--------xx----------| x2

Order

Intro
Verse
Pre-Chorus
Chorus
Verse
Pre-Chorus
Chorus
Solo
Chorus out    

Added On December 12th, 2013

SHARE

Comments

blog comments powered by Disqus

VERSIONS

ADVERTISEMENT