Sum 41 Tabs

All Shes Got Solo

1 versions

TAB

            All Shes Got Tab by Sum 41


From:Andrew Summers
Band:Sum 41
Album:All Killer No Killer
Track:11

Im back again, I saw that there was no tab for this song, so I decided to do the solo, coz I was bored.  Yet another cool song from Sum 41, the solos pretty easy too.

E-----------------------------------------------------------
B-----------------------------------------------------------
G--8-9-11-11-9-8-9-8--9-8---8-9-11-11-9-8-9-8--9-8----------
D-------------------9-----9------------------9-----9--------
A-----------------------------------------------------------
E-----------------------------------------------------------


E--7-9-11-11-9-7-7-9-11-11-9-7--7--7---7---7----------------
B---------------------------------7--7---7---7--------------
G---------------------------------------------------4-------
D---------------------------------------------------4-------
A---------------------------------------------------2-------
E-----------------------------------------------------------    

Added On December 12th, 2013

SHARE

Comments

blog comments powered by Disqus

ADVERTISEMENT