Sum 41 Tabs

Angels With Dirty Faces

3 versions

TAB

            Angels With Dirty Faces Tab by Sum 41


HI this is my first tab.and i'm only 14..soo yeaa and this song is from the album chuck
soo go out and by it cuz it rocks!
drop d and then tune each string down another half step(Db)


Intro (0:00) (Gtr.1, play mostly with the words)  
                                      play 2x|
||------------------------------------------||
||*----------------------------------------*||
||------------------------------------------||
||*----------------------------------------*||
||------------1--------------------0--------||
||-0--5-2-3------5-2-3-2-0--5-2-3-----2-3-2-||

Post-Intro (0:20) (tempo back up to 200) (Gtrs.1+2)
|---------------------------------------------------------------------
|---------------------------------------------------------------------
|-------10101010--------10101010---------12-12-12-12---------9-9-9-9--
|--0--0--x-x-x-x--0--0--x-x-x-x--8-8-8-8-x--x--x--x--7-7-7-7-x-x-x-x--
|--0--0--8-8-8-8--0--0--8-8-8-8--8-8-8-8-10-10-10-10-7-7-7-7-7-7-7-7--
|--0--0-----------0--0-----------8-8-8-8-------------7-7-7-7----------

|-------------------------------------------------------------------|
|-------------------------------------------------------------------|
|-10\-----------1010\-------------------12-12-12-12---------9-9-9-9-|
|--x-\--0-0-0-0--x-x-\--0-0-0-0-8-8-8-8--x--x--x--x-7-7-7-7-x-x-x-x-|
|--8--\-0-0-0-0--8-8--\-0-0-0-0-8-8-8-8-10-10-10-10-7-7-7-7-7-7-7-7-|
|-------0-0-0-0---------0-0-0-0-8-8-8-8-------------7-7-7-7---------|

Pre-verse 1 (0:30) (Gtrs.1+2, still tabbing the third guitar's part here)
           ||        play 6x|
|----------||--------------||-----------------|
|----------||*------------*||-----------------|
|----------||--------------||-----------------|
|--0-0-0-R-||--0-0-0-0--R--||--0-0-5-3-2-2--R-|
|--0-0-0---||*-0-0-0-0----*||--0-0-5-3-2-2----|
|--0-0-0---||--0-0-0-0-----||--0-0-5-3-2-2----|
pm * * *       * * * *         * * * * *

Verse 1 (0:40) (Gtrs. 1+2)
||                             play 4x|
||-----------------------------------||
||----------------------------------*||
||--------------------------5-5-5-5--||
||--0-0-0-0-8-7-7-7-3-3-3-3-5-5-5-5--||
||--0-0-0-0-8-7-7-7-3-3-3-3-3-3-3-3-*||
||--0-0-0-0-8-7-7-7-3-3-3-3----------||

Pre-Chorus (0:50) (Gtrs.1+2)
||                    play 2x|                    play 2x|
||--------------------------|||-------------------------||
||*------------------------*|||*-----------------------*||
||---10--10-10-10-10-10-10--|||--12--12-12-12-12-12-12--|| *(GTR 3. PICKSLIDES INTO CHORUS)
||---10--10-10-10-10-10-10--|||--12--12-12-12-12-12-12--||
||*--8----8--8--8--8--8--8-*|||*-10--10-10-10-10-10-10-*||
||---8----8--8--8--8--8--8--|||--10--10-10-10-10-10-10--||

Chorus (0:55) (Gtrs.1+2)
||                                                             play 2x|
||-------------------------------------------------------------------||
||*-----------------------------------------------------------------*||
||-------------------------------------------------------------------||
||--0-0-0-0-0-0-0-0-3-3-3-3-3-3-3-3-8-8-8-8-8-8-8-10-10-8-8-7-7-5-5--||
||*-0-0-0-0-0-0-0-0-3-3-3-3-3-3-3-3-8-8-8-8-8-8-8-10-10-8-8-7-7-5-5-*||
||--0-0-0-0-0-0-0-0-3-3-3-3-3-3-3-3-8-8-8-8-8-8-8-10-10-8-8-7-7-5-5--||

Pre-Verse 2 (1:06) (Gtr.1 only)
|----------------------------------------------|
|----------------------------------------------|
|----------------------------------------------|
|--0-~-2-~-3-~-5-~-0-~-2-~-3-~-5-5-5-5-5-5-5-5-|
|--0-~-2-~-3-~-5-~-0-~-2-~-3-~-5-5-5-5-5-5-5-5-|
|--0-~-2-~-3-~-5-~-0-~-2-~-3-~-5-5-5-5-5-5-5-5-|
`
~ Verse 2 (1:16) (Gtrs.1+2)

~ Pre-Chorus (1:26) (Gtrs.1+2)

~ Chorus 2 (1:31) (Gtrs.1+2)

Bridge (1:40) (Gtrs.1+2)
         ||         play 3x|
|--------||---------------||----------------------------------------------------------------------|
|--------||*-------------*||----------------------------------------------------------------------|
|--------||---------------||----------------------------------------------------------------------|
|-0_--R--||--0-0-0-0--R---||--0-0-0-0-0-0-0-0-0-0-0-0-0-0-0-0--0--0--0--0--0--0--0000000000000000-|
|-0_-----||*-0-0-0-0-----*||--0-0-0-0-0-0-0-0-0-0-0-0-0-0-0-0--0--0--0--0--0--0--0000000000000000-|
|-0_-----||--0-0-0-0------||--0-0-0-0-0-0-0-0-0-0-0-0-0-0-0-0--0--0--0--0--0--0--0000000000000000-|
          pm * * * *          * * * * * * * * * * * * * * * *  *  *  *  *  *  *  ****************
                                           ^    ^              ^  ^  ^  ^  ^  ^          ^
                                          1/8 notes            1/4 note triplets      1/16 notes

~ Final Chorus (1:56) (Gtrs.1+2, twice as long)

 Ending (2:16) (Gtrs.1+2)
|---------------------------------------------------|
|---------------------------------------------------|
|-------10101010-------10101010-------10101010------|
|--0--0--x-x-x-x--0--0--x-x-x-x--0--0--x-x-x-x--0---|
|--0--0--8-8-8-8--0--0--8-8-8-8--0--0--8-8-8-8--0---|
|--0--0-----------0--0-----------0--0-----------0---|    

Added On December 12th, 2013

SHARE

Comments

blog comments powered by Disqus

VERSIONS

ADVERTISEMENT