Sum 41 Tabs

Best Of Me Solo

1 versions

TAB

            Artist: Sum 41
Song: Best of Me
Album: Underclass Hero
E|-----------------------------------------------------------------------------------------|
B|-8---8---8---8---8---8---8---8-----/8-8--7-8--8--10-10-----8-8--7-8--8--10-10------------|
G|---7---7---7---7---7---7---7---7---/7-7--7-7--7--7--7---7--7-7--7-7--7--7--7--7----------|
D|-----------------------------------------------------------------------------------------|
A|-----------------------------------------------------------------------------------------|
E|-----------------------------------------------------------------------------------------|

E|------7----------7--------10-----10------------------------------------------------------|
B|------------7---------7-8----8-7----7-8-7--8-8--7-8--8--10-10-----8-8--7-8--8--10-10-----|
G|-/7-7----7----7----7-----------------------7-7--7-7--7--7--7---7--7-7--7-7--7--7--7--7---|
D|-----------------------------------------------------------------------------------------|
A|-----------------------------------------------------------------------------------------|
E|-----------------------------------------------------------------------------------------|

E|------7----------7--------7-------7----------10-------10------------10------10-----------|
B|------------7------------------8-------8--7-----8--7----8--7--10-8-----10-8----10-11--10~|
G|-/7-7----7----7----7--9-9----9---9---9-------------------------------------------------7~|
D|-----------------------------------------------------------------------------------------|
A|-----------------------------------------------------------------------------------------|
E|-----------------------------------------------------------------------------------------|

Rest of the Song is coming soon...

Greetz
Roli    

Added On December 16th, 2013

SHARE

Comments

blog comments powered by Disqus

ADVERTISEMENT