Sum 41 Tabs

Chuck Album

2 versions

TAB

            Chuck Tab by Sum 41


song: intro

Tuning: 1/2 step down

{Guitar 1 (slight distortion for both guitars)
{   (Ebm)                       (B)               (C#)
{    Em                          C                 D
{eb|--------------------------------------------------------|
{Bb|--------------------------------------------------------|
{Gb|---------------------------------9--9--9-------2--0-----|
{Db|-----9-10-9----------------------9--10-9-------0--0--4--|
{Ab|-7---7--7-7-------9----10--------7--7--7-------------5--|
{Eb|-0----------------0----0-----8--------------------------|
{
{Guitar 2
{eb|-----------------------------------------------2--------|
{Bb|---------------------------------3--5--3-------3-----3--|
{Gb|-----------------------------4-----------------2-----2--|
{Db|-----------------------------5-----------------0-----0--|
{Ab|-----------------------------3--------------------------|
{Eb|-0------------------------------------------------------|


{Guitar 1
{   (Ebm)                     (B)                 (C#)
{    Em                        C                   D
{eb|-----------------------------------------------------------|
{Bb|-----0-1-0-------0----0------------------------10---8--7---|
{Gb|-----0-2-0-------X----X--------9--9--9---------7----7--7---|
{Db|-2---2-2-2-------7----9--------9--10-9---------0----0--0---|
{Ab|-2---------------9----10-------7--7--7---------------------|
{Eb|-0---------------0----0----8-------------------------------|
{
{Guitar 2
{eb|-0---------------0-------------------------------------3---|
{Bb|-0---------------0-------------3-5-3-----------2-------2---|
{Gb|-0---------------0---------4-------------------3-------3---|
{Db|-2---------------2---------5-------------------0-------0---|
{Ab|-2---------------2---------3-------------------------------|
{Eb|-0---------------0-----------------------------------------|

Repeat all of the above, and this time add in
the parts written below where they are needed.

Guitar 3 (Clean)
eb|------------------------------|-----------------------------|
Bb|------------------------------|-----------12----------------|
Gb|-----------9-11-9-11b12r11----|----9/12------12-9-----------|
Db|---9-10-12--------------------|-----------------------------|
Ab|------------------------------|-----------------------------|
Eb|------------------------------|-----------------------------|

eb|---------------------|--------------------------------------|
Bb|---------------------|--------------------------------------|
Gb|-12\11/12---12/14----|-------------9-11-9-11b12r11----------|
Db|---------------------|-----9-10-12--------------------------|
Ab|---------------------|--------------------------------------|
Eb|---------------------|--------------------------------------|

eb|---------------------|--------------------------------------|
Bb|-------12------------|--------------------------------------|
Gb|-9/12-----12-9-------|-----12\11/12---12/14-----------------|
Db|---------------------|--------------------------------------|
Ab|---------------------|--------------------------------------|
Eb|---------------------|--------------------------------------|

song: no reason

"All of us believe..."
Eb|----------------------|  Intro
Bb|----------------------|
Gb|------5--4------4--7--| {play twice}
Db|---2--5--4--2---4--7--|
Ab|---2--3--2--2---2--5--|
Eb|---0--------0---------|

            "Hey!"
Eb|--------------------------|
Bb|--------------------------|
Gb|-----------------4--7-----| {Play twice}
Db|-------5-5-4-0---4--7--(2)|
Ab|--2-2------------2--5--(2)--->replaces the 2-2 or just use a 2nd guitar
Eb|-----------------------(0)|

Eb|----------------------|2nd guitar
Bb|----------------------| 
Gb|------5--4------4--7--|2nd guitar comes in, plays this during "Hey" part
Db|---2--5--4--2---4--7--|     
Ab|---2--3--2--2---2--5--|
Eb|---0--------0---------|

The verse from what I can tell really only has a little bass and some 2nd guitar
in the background...

You can hear this:           And this little part in the background
Eb|-----------------|          |-----------------------|
Bb|-----------------|          |-----------------------|
Gb|-----------------|          |-----------------------|
Db|-------5-4-0-----|          |-----------------------| (x2)
Ab|-----------------|          |--7-9-10-12-14-12-10-12|
Eb|-----------------|          |-----------------------|

Chorus:
     "Tell me why can't you see, it's not the way.."
Eb|--------------------------------------------|
Bb|--------------------------------------------|
Gb|---5---------7--------5---------7----9------|
Db|---5(x8)5----7(x16)---5(x8)5----7(x8)9(x8)--| x2 or however many times
Ab|---3----5(x8)5--------3----5(x8)5----7------|
Eb|--------3------------------3----------------|


My attempt at the leadout of the chorus: This is how I play it:
It sounds pretty cool:

Eb|--------------------------------|      
Bb|--------------------------------|         
Gb|--------------------------------|      
Db|-------2-4-5--------------------|
Ab|---------------0--2/3\2---------|
Eb|-------------------------0------|

song: we're all to blame

==========================================

DERYCK - RHYTHM GUITAR (Eb Ab Db Gb Bb Eb)

==========================================

INTRO (0:03):
Distortion:
   D#                      E   D#                           E   D#
Eb|--------------------------------|--------------------------------|
Bb|--------------------------------|--------------------------------|
Gb|9---9-9-9---9-9-9---9-9-10--9---|9---9-9-9---9-9-9---9-9-10--9---|
Db|x---x-x-x---x-x-x---x-x-x---x---|x---x-x-x---x-x-x---x-x-x---x---|
Ab|7---7-7-7---7-7-7---7-7-8---7---|7---7-7-7---7-7-7---7-7-8---7---|
Eb|--------------------------------|--------------------------------|
   1 e & a 2 e & a 3 e & a 4 e & a  1 e & a 2 e & a 3 e & a 4 e & a

   D#                      E   D#   B5   A#5  B5   C#5  A#5  B5
Eb|--------------------------------|--------------------------------|
Bb|--------------------------------|--------------------------------|
Gb|9---9-9-9---9-9-9---9-9-10--9---|--------------------------------|
Db|x---x-x-x---x-x-x---x-x-x---x---|10---9----10---12---9----10-----|
Ab|7---7-7-7---7-7-7---7-7-8---7---|10---9----10---12---9----10-----|
Eb|--------------------------------|8----7----8----10---7----8------|
   1 e & a 2 e & a 3 e & a 4 e & a  1    e    a    3    e    a

(0:09):
   D#5 (m)
Eb|--------------------------------|--------------------------------|
Bb|--------------------------------|--------------------------------|
Gb|------------------------12------|------------------------12------|
Db|2-2-2-2-2-2-2-2-2-------x-------|2-2-2-2-2-2-2-2-2-------x-------|
Ab|2-2-2-2-2-2-2-2-2-------10------|2-2-2-2-2-2-2-2-2-------10------|
Eb|0-0-0-0-0-0-0-0-0---------------|0-0-0-0-0-0-0-0-0---------------|
   1 e & a 2 e & a 3 e & a 4 e & a  1 e & a 2 e & a 3 e & a 4 e & a
   . . . . . . . . .                . . . . . . . . .
                                    B5   A#5  B5   C#5  A#5  B5
Eb|--------------------------------|--------------------------------|
Bb|--------------------------------|--------------------------------|
Gb|------------------------12------|--------------------------------|
Db|2-2-2-2-2-2-2-2-2-------x-------|10---9----10---12---9----10-----|
Ab|2-2-2-2-2-2-2-2-2-------10------|10---9----10---12---9----10-----|
Eb|0-0-0-0-0-0-0-0-0---------------|8----7----8----10---7----8------|
   1 e & a 2 e & a 3 e & a 4 e & a  1    e    a    3    e    a
   . . . . . . . . .
   B5   A#5  B5   C#5  A#5  B5     D#5
Eb|--------------------------------|--------------------------------|
Bb|--------------------------------|--------------------------------|
Gb|--------------------------------|.-------.-------.-------.-------|
Db|10---9----10---12---9----10-----|2-------2-------2-------2-------|
Ab|10---9----10---12---9----10-----|2-------2-------2-------2-------|
Eb|8----7----8----10---7----8------|0-------0-------0-------0-------|
   1    e    a    3    e    a       1       2       3       4
   .    .    .    .    .    .



1st VERSE (0:18):
   N.C.
Eb|--------------------------------|--------------------------------|\\
Bb|--------------------------------|--------------------------------| \\
Gb|--------------------------------|--------------------------------|  \\
Db|--------------------------------|--------------------------------|   \\
Ab|--------------------------------|--------------------------------|    \\
Eb|--------------------------------|--------------------------------|     \\
  1 e & a 2 e & a 3 e & a 4 e & a  1 e & a 2 e & a 3 e & a 4 e & a         \\
                                                                            |x3,5
   D#5     F#5 D#5         F5  D#5          E5  D#5     E5  D#5 E5         /
Eb|--------------------------------|--------------------------------|     /
Bb|--------------------------------|--------------------------------|    /
Gb|--------------------------------|--------------------------------|   /
Db|2-----2-5---2---2-----2-4---2---|2-----2-3---2---2---3---2---3---|  /
Ab|2-----2-5---2---2-----2-4---2---|2-----2-3---2---2---3---2---3---| /
Eb|0-----0-3---0---0-----0-2---0---|0-----0-1---0---0---1---0---1---|/
   1 e & a 2 e & a 3 e & a 4 e & a  1 e & a 2 e & a 3 e & a 4 e & a
   .     . .   .   .     . .   .    .     . .   .   .       .

   D#5     F#5 D#5         F5  D#5  B5   A#5  B5   C#5  A#5  B5
Eb|--------------------------------|--------------------------------|
Bb|--------------------------------|--------------------------------|
Gb|--------------------------------|--------------------------------|
Db|2-----2-5---2---2-----2-4---2---|10---9----10---12---9----10-----|
Ab|2-----2-5---2---2-----2-4---2---|10---9----10---12---9----10-----|
Eb|0-----0-3---0---0-----0-2---0---|8----7----8----10---7----8------|
   1 e & a 2 e & a 3 e & a 4 e & a  1    e    a    3    e    a
   .     . .   .   .     . .   .



1st CHORUS (0:42):
Clean Guitar w/ Tremolo effect
   G#m                              C#m
Eb|0~------------------------------|1~------------------------------|
Bb|1~------------------------------|3~------------------------------|
Gb|2~------------------------------|2~------------------------------|
Db|2~------------------------------|0~------------------------------|
Ab|0~------------------------------|--------------------------------|
Eb|--------------------------------|--------------------------------|

   F#                               D#(m)
Eb|3~------------------------------|0~------------------------------|
Bb|3~------------------------------|0~------------------------------|
Gb|0~------------------------------|1~------------------------------|
Db|0~------------------------------|2~------------------------------|
Ab|2~------------------------------|2~------------------------------|
Eb|3~------------------------------|0~------------------------------|

(0:48):
   G#m             C#m              F#              D#(m)
Eb|0---0---0---0-0-1---1---1---1-0-|3---3---3---3-0-0---0---0---0-0-|\\
Bb|1---1---1---1-0-3---3---3---3-0-|3---3---3---3-0-0---0---0---0-0-| \\
Gb|2---2---2---2-0-2---2---2---2-0-|0---0---0---0-0-1---1---1---1-0-|  |x3.
Db|2---2---2---2-0-0---0---0---0-0-|0---0---0---0-0-2---2---2---2-0-|  |
Ab|0---0---0---0-0-----------------|2---2---2---2-0-2---2---2---2-0-| /
Eb|--------------------------------|3---3---3---3-0-0---0---0---0-0-|/
   1 e & a 2 e & a 3 e & a 4 e & a  1 e & a 2 e & a 3 e & a 4 e & a

(1:06):
   D#(m)
Eb|0-------------------------------|
Bb|0-------------------------------|
Gb|1-------------------------------|
Db|2-------------------random------|
Ab|2-------------------slide-------|
Eb|0-------------------------------|
   1 e & a 2 e & a 3 e & a 4 e & a
Distortion:
   B5   A#5  B5   C#5  A#5  B5     D#5
Eb|--------------------------------|--------------------------------|
Bb|--------------------------------|--------------------------------|
Gb|--------------------------------|.-------.-------.-------.-------|
Db|10---9----10---12---9----10-----|2-------2-------2-------2-------|
Ab|10---9----10---12---9----10-----|2-------2-------2-------2-------|
Eb|8----7----8----10---7----8------|0-------0-------0-------0-------|
   1    e    a    3    e    a       1       2       3       4



2nd VERSE (1:11):

Repeat 1st VERSE.



2nd CHORUS (1:34):

Repeat 1st CHORUS. Stop at \"1:06\" and play the below instead (1:59).



BRIDGE (1:59):
   G#m             E                B               F#
Eb|0---0---0---0-0-1---1---1---1-0-|0---0---0---0-0-3---3---3---3-0-|
Bb|1---1---1---1-0-1---1---1---1-0-|1---1---1---1-0-3---3---3---3-0-|
Gb|2---2---2---2-0-2---2---2---2-0-|0---0---0---0-0-0---0---0---0-0-|
Db|2---2---2---2-0-3---3---3---3-0-|2---2---2---2-0-0---0---0---0-0-|
Ab|0---0---0---0-0-3---3---3---3-0-|3---3---3---3-0-2---2---2---2-0-|
Eb|----------------1---1---1---1-0-|----------------3---3---3---3-0-|
   1 e & a 2 e & a 3 e & a 4 e & a  1 e & a 2 e & a 3 e & a 4 e & a

   G#m             E                B               F#
Eb|0---0---0---0-0-1---1---1---1-0-|0---0---0---0-0-3~--------------|
Bb|1---1---1---1-0-1---1---1---1-0-|1---1---1---1-0-3~--------------|
Gb|2---2---2---2-0-2---2---2---2-0-|0---0---0---0-0-0~--------------|
Db|2---2---2---2-0-3---3---3---3-0-|2---2---2---2-0-0~--------------|
Ab|0---0---0---0-0-3---3---3---3-0-|3---3---3---3-0-2~--------------|
Eb|----------------1---1---1---1-0-|----------------3~--------------|
   1 e & a 2 e & a 3 e & a 4 e & a  1 e & a 2 e & a 3 e & a 4 e & a
                                                                F#5
Eb|(3)-----------------------------|(3)-----------------------------|
Bb|(3)-----------------------------|(3)-----------------------------|
Gb|(0)-----------------------------|(0)-----------------------------|
Db|(0)-----------------------------|(0)-------------------------5---|
Ab|(2)-----------------------------|(2)-------------------------5---|
Eb|(3)-----------------------------|(3)-------------------------3---|
   1 e & a 2 e & a 3 e & a 4 e & a  1 e & a 2 e & a 3 e & a 4 e & a



3rd VERSE (2:13):
Deryck probably doesn\'t play this part, but I\'ll tab it out anyways.

   D#5         F#5 D#5         F5   D#5         F5  D#5 F#5 G#5 E
Eb|--------------------------------|--------------------------------|
Bb|--------------------------------|--------------------------------|
Gb|--------------------------------|----------------------------10--|
Db|2-----------5---2-----------4---|2-----------4---2---5---7---x---|
Ab|2-----------5---2-----------4---|2-----------4---2---5---7---8---|
Eb|0---0-0-0-0-3---0---0-0-0-0-2---|0---0-0-0-0-2---0---3---5-------|
   1 e & a 2 e & a 3 e & a 4 e & a  1 e & a 2 e & a 3 e & a 4 e & a
       . . . .         . . . .          . . . .
   D#5         F#5 D#5         F5   D#5         F5  D#5 F#5 G#5 E
Eb|--------------------------------|--------------------------------|
Bb|--------------------------------|--------------------------------|
Gb|--------------------------------|----------------------------10--|
Db|2-----------5---2-----------4---|2-----------4---2---5---7---x---|
Ab|2-----------5---2-----------4---|2-----------4---2---5---7---8---|
Eb|0---0-0-0-0-3---0---0-0-0-0-2---|0---0-0-0-0-2---0---3---5-------|
   1 e & a 2 e & a 3 e & a 4 e & a  1 e & a 2 e & a 3 e & a 4 e & a
       . . . .         . . . .          . . . .

(2:19):
   D#5
Eb|--------------------------------|--------------------------------|
Bb|--------------------------------|--------------------------------|
Gb|--------------------------------|--------------------------------|
Db|2---2-2-2-2-2-2-2---------------|2---2-2-2-2-2-2-2---------------|
Ab|2---2-2-2-2-2-2-2---------------|2---2-2-2-2-2-2-2---------------|
Eb|0---0-0-0-0-0-0-0---------------|0---0-0-0-0-0-0-0---------------|
   1 e & a 2 e & a 3 e & a 4 e & a  1 e & a 2 e & a 3 e & a 4 e & a
       . . . . . .                      . . . . . .         N.C.
Eb|--------------------------------|--------------------------------|
Bb|--------------------------------|--------------------------------|
Gb|--------------------------------|--------------------------------|
Db|2---2-2-2-2-2-2-2---------------|2---2-2-2-2-2-2-2-------random--|
Ab|2---2-2-2-2-2-2-2---------------|2---2-2-2-2-2-2-2-------slide---|
Eb|0---0-0-0-0-0-0-0---------------|0---0-0-0-0-0-0-0---------------|
   1 e & a 2 e & a 3 e & a 4 e & a  1 e & a 2 e & a 3 e & a 4 e & a
       . . . . . .                      . . . . . .
   D#5                     B        D#5                     A#
Eb|--------------------------------|--------------------------------|
Bb|--------------------------------|--------------------------------|
Gb|------------------------5-------|------------------------4-------|
Db|2---2-2-2-2-2-2-2-------x-------|2---2-2-2-2-2-2-2-------x-------|
Ab|2---2-2-2-2-2-2-2-------3-------|2---2-2-2-2-2-2-2-------2-------|
Eb|0---0-0-0-0-0-0-0---------------|0---0-0-0-0-0-0-0---------------|
   1 e & a 2 e & a 3 e & a 4 e & a  1 e & a 2 e & a 3 e & a 4 e & a
       . . . . . .                      . . . . . .
   D#5                     B        F#5
Eb|--------------------------------|----------------|----------------|
Bb|--------------------------------|----------------|----------------|
Gb|------------------------5-------|----------------|----------------|
Db|2---2-2-2-2-2-2-2-------x-------|5-5-5-5-5-5-5-5-|5-5-5-5-5-5-5-5-|
Ab|2---2-2-2-2-2-2-2-------3-------|5-5-5-5-5-5-5-5-|5-5-5-5-5-5-5-5-|
Eb|0---0-0-0-0-0-0-0---------------|3-3-3-3-3-3-3-3-|3-3-3-3-3-3-3-3-|
   1 e & a 2 e & a 3 e & a 4 e & a  1 & 2 & 3 & 4 &  1 & 2 & 3 & 4 &
       . . . . . .                  . . . . . . . .  . . .



3rd CHORUS (2:31):
   G#m             C#m              F#              D#(m)
Eb|0---0---0---0-0-1---1---1---1-0-|3---3---3---3-0-0---0---0---0-0-|\\
Bb|1---1---1---1-0-3---3---3---3-0-|3---3---3---3-0-0---0---0---0-0-| \\
Gb|2---2---2---2-0-2---2---2---2-0-|0---0---0---0-0-1---1---1---1-0-|  |x2.
Db|2---2---2---2-0-0---0---0---0-0-|0---0---0---0-0-2---2---2---2-0-|  |
Ab|0---0---0---0-0-----------------|2---2---2---2-0-2---2---2---2-0-| /
Eb|--------------------------------|3---3---3---3-0-0---0---0---0-0-|/
   1 e & a 2 e & a 3 e & a 4 e & a  1 e & a 2 e & a 3 e & a 4 e & a

(2:42):
   G#m             E                B               F#
Eb|0---0---0---0-0-1---1---1---1-0-|0---0---0---0-0-3---3---3---3-0-|\\
Bb|1---1---1---1-0-1---1---1---1-0-|1---1---1---1-0-3---3---3---3-0-| \\
Gb|2---2---2---2-0-2---2---2---2-0-|0---0---0---0-0-0---0---0---0-0-|  |x4.
Db|2---2---2---2-0-3---3---3---3-0-|2---2---2---2-0-0---0---0---0-0-|  |
Ab|0---0---0---0-0-3---3---3---3-0-|3---3---3---3-0-2---2---2---2-0-| /
Eb|----------------1---1---1---1-0-|----------------3---3---3---3-0-|/
   1 e & a 2 e & a 3 e & a 4 e & a  1 e & a 2 e & a 3 e & a 4 e & a



OUTRO (3:06):
Acoustic Guitar:
   G#m                              C#m
Eb|0~------------------------------|1~------------------------------|
Bb|1~------------------------------|3~------------------------------|
Gb|2~------------------------------|2~------------------------------|
Db|2~------------------------------|0~------------------------------|
Ab|0~------------------------------|--------------------------------|
Eb|--------------------------------|--------------------------------|

   F#                               D#(m)
Eb|3~------------------------------|0~------------------------------|
Bb|3~------------------------------|0~------------------------------|
Gb|0~------------------------------|1~------------------------------|
Db|0~------------------------------|2~------------------------------|
Ab|2~------------------------------|2~------------------------------|
Eb|3~------------------------------|0~------------------------------|

   G#m             C#m              F#              D#(m)
Eb|0---0---0---0-0-1---1---1---1-0-|3---3---3---3-0-0---0---0---0-0-|\\
Bb|1---1---1---1-0-3---3---3---3-0-|3---3---3---3-0-0---0---0---0-0-| \\
Gb|2---2---2---2-0-2---2---2---2-0-|0---0---0---0-0-1---1---1---1-0-|  |x3.
Db|2---2---2---2-0-0---0---0---0-0-|0---0---0---0-0-2---2---2---2-0-|  |
Ab|0---0---0---0-0-----------------|2---2---2---2-0-2---2---2---2-0-| /
Eb|--------------------------------|3---3---3---3-0-0---0---0---0-0-|/
   1 e & a 2 e & a 3 e & a 4 e & a  1 e & a 2 e & a 3 e & a 4 e & a

   G#m
Eb|0~------------------------------||
Bb|1~------------------------------||
Gb|2~------------------------------||
Db|2~------------------------------||
Ab|0~------------------------------||
Eb|--------------------------------||





================================

DAVE - LEAD GUITAR (D A D G B E)

================================

INTRO (0:03):
Distortion:
  D#                      E   D#                           E   D#
E|--------------------------------|--------------------------------|
B|--------------------------------|--------------------------------|
G|8---8-8-8---8-8-8---8-8-9---8---|8---8-8-8---8-8-8---8-8-9---8---|
D|x---x-x-x---x-x-x---x-x-x---x---|x---x-x-x---x-x-x---x-x-x---x---|
A|6---6-6-6---6-6-6---6-6-7---6---|6---6-6-6---6-6-6---6-6-7---6---|
D|--------------------------------|--------------------------------|
  1 e & a 2 e & a 3 e & a 4 e & a  1 e & a 2 e & a 3 e & a 4 e & a

  D#                      E   D#   B5   A#5  B5   C#5  A#5  B5
E|--------------------------------|--------------------------------|
B|--------------------------------|--------------------------------|
G|8---8-8-8---8-8-8---8-8-9---8---|4----3----4----6----3----4------|
D|x---x-x-x---x-x-x---x-x-x---x---|4----3----4----6----3----4------|
A|6---6-6-6---6-6-6---6-6-7---6---|2----1----2----4----1----2------|
D|--------------------------------|--------------------------------|
  1 e & a 2 e & a 3 e & a 4 e & a  1    e    a    3    e    a
                          *random slide
(0:09):
  D#5 (m)
E|--------------------------------|--------------------------------|
B|--------------------------------|--------------------------------|
G|------------------------11------|------------------------11------|
D|1-1-1-1-1-1-1-1-1-------x-------|1-1-1-1-1-1-1-1-1-------x-------|
A|1-1-1-1-1-1-1-1-1-------9-------|1-1-1-1-1-1-1-1-1-------9-------|
D|1-1-1-1-1-1-1-1-1---------------|1-1-1-1-1-1-1-1-1---------------|
  1 e & a 2 e & a 3 e & a 4 e & a  1 e & a 2 e & a 3 e & a 4 e & a
  . . . . . . . . .                . . . . . . . . .
                                   B5   A#5  B5   C#5  A#5  B5
E|--------------------------------|--------------------------------|
B|--------------------------------|--------------------------------|
G|------------------------11------|4----3----4----6----3----4------|
D|1-1-1-1-1-1-1-1-1-------x-------|4----3----4----6----3----4------|
A|1-1-1-1-1-1-1-1-1-------9-------|2----1----2----4----1----2------|
D|1-1-1-1-1-1-1-1-1---------------|--------------------------------|
  1 e & a 2 e & a 3 e & a 4 e & a  1    e    a    3    e    a
  . . . . . . . . .
  B5   A#5  B5   C#5  A#5  B5      D#5
E|--------------------------------|--------------------------------|
B|--------------------------------|--------------------------------|
G|4----3----4----6----3----4------|.-------.-------.-------.-------|
D|4----3----4----6----3----4------|1-------1-------1-------1-------|
A|2----1----2----4----1----2------|1-------1-------1-------1-------|
D|--------------------------------|1-------1-------1-------1-------|
  1    e    a    3    e    a       1 e & a 2 e & a 3 e & a 4 e & a
  .    .    .    .    .    .



1st VERSE (0:18):
  D#                      A#       C#              B
E|--------------------------------|--------------------------------|
B|--------------------------------|--------------------------------|
G|8-8-8-8-8-8-8-8-8-8-8-8-3-3-3-3-|6-6-6-6-6-6-6-6-4-4-4-4-4-4-4-4-|
D|x-x-x-x-x-x-x-x-x-x-x-x-x-x-x-x-|x-x-x-x-x-x-x-x-x-x-x-x-x-x-x-x-|
A|6-6-6-6-6-6-6-6-6-6-6-6-1-1-1-1-|4-4-4-4-4-4-4-4-2-2-2-2-2-2-2-2-|
D|--------------------------------|--------------------------------|
  1 e & a 2 e & a 3 e & a 4 e & a  1 e & a 2 e & a 3 e & a 4 e & a

  D#5     F#5 D#5         F5  D#5          E5  D#5     E5  D#5 E5
E|--------------------------------|--------------------------------|
B|--------------------------------|--------------------------------|
G|--------------------------------|--------------------------------|
D|1-----1-4---1---1-----1-3---1---|1-----1-2---1---1---2---1---2---|
A|1-----1-4---1---1-----1-3---1---|1-----1-2---1---1---2---1---2---|
D|1-----1-4---1---1-----1-3---1---|1-----1-2---1---1---2---1---2---|
  1 e & a 2 e & a 3 e & a 4 e & a  1 e & a 2 e & a 3 e & a 4 e & a
  .     . .   .   .     . .   .    .     . .   .   .       .
  D#                      A#       B               C#
E|--------------------------------|--------------------------------|
B|--------------------------------|--------------------------------|
G|8-8-8-8-8-8-8-8-8-8-8-8-3-3-3-3-|4-4-4-4-4-4-4-4-6-6-6-6-6-6-6-6-|
D|x-x-x-x-x-x-x-x-x-x-x-x-x-x-x-x-|x-x-x-x-x-x-x-x-x-x-x-x-x-x-x-x-|
A|6-6-6-6-6-6-6-6-6-6-6-6-1-1-1-1-|2-2-2-2-2-2-2-2-4-4-4-4-4-4-4-4-|
D|--------------------------------|--------------------------------|
  1 e & a 2 e & a 3 e & a 4 e & a  1 e & a 2 e & a 3 e & a 4 e & a

  D#5     F#5 D#5         F5  D#5          E5  D#5     E5  D#5 E5
E|--------------------------------|--------------------------------|
B|--------------------------------|--------------------------------|
G|--------------------------------|--------------------------------|
D|1-----1-4---1---1-----1-3---1---|1-----1-2---1---1---2---1---2---|
A|1-----1-4---1---1-----1-3---1---|1-----1-2---1---1---2---1---2---|
D|1-----1-4---1---1-----1-3---1---|1-----1-2---1---1---2---1---2---|
  1 e & a 2 e & a 3 e & a 4 e & a  1 e & a 2 e & a 3 e & a 4 e & a
  .     . .   .   .     . .   .    .     . .   .   .       .

(0:30):
  D#          F#          F            C#          F
E|--------------------------------|--------------------------------|
B|--------------------------------|--------------------------------|
G|8-8-8-8-8-8-11111111111110101010|10106-6-6-6-6-6-1010101010101010|
D|x-x-x-x-x-x-x-x-x-x-x-x-x-x-x-x-|x-x-x-x-x-x-x-x-x-x-x-x-x-x-x-x-|
A|6-6-6-6-6-6-9-9-9-9-9-9-8-8-8-8-|8-8-4-4-4-4-4-4-8-8-8-8-8-8-8-8-|
D|--------------------------------|--------------------------------|
  1 e & a 2 e & a 3 e & a 4 e & a  1 e & a 2 e & a 3 e & a 4 e & a

  D#5     F#5 D#5         F5  D#5          E5  D#5     E5  D#5 E5
E|--------------------------------|--------------------------------|
B|--------------------------------|--------------------------------|
G|--------------------------------|--------------------------------|
D|1-----1-4---1---1-----1-3---1---|1-----1-2---1---1---2---1---2---|
A|1-----1-4---1---1-----1-3---1---|1-----1-2---1---1---2---1---2---|
D|1-----1-4---1---1-----1-3---1---|1-----1-2---1---1---2---1---2---|
  1 e & a 2 e & a 3 e & a 4 e & a  1 e & a 2 e & a 3 e & a 4 e & a
  .     . .   .   .     . .   .    .     . .   .   .       .
  D#          F#          C#       G#              F#
E|--------------------------------|--------------------------------|
B|--------------------------------|--------------------------------|
G|8-8-8-8-8-8-1111111111116-6-6-6-|13131313131313131111111111111111|
D|x-x-x-x-x-x-x-x-x-x-x-x-x-x-x-x-|x-x-x-x-x-x-x-x-x-x-x-x-x-x-x-x-|
A|6-6-6-6-6-6-9-9-9-9-9-9-4-4-4-4-|11111111111111119-9-9-9-9-9-9-9-|
D|--------------------------------|--------------------------------|
  1 e & a 2 e & a 3 e & a 4 e & a  1 e & a 2 e & a 3 e & a 4 e & a

  D#5     F#5 D#5         F5  D#5  B5   A#5  B5   C#5  A#5  B5
E|--------------------------------|--------------------------------|
B|--------------------------------|--------------------------------|
G|--------------------------------|4----3----4----6----3----4------|
D|1-----1-4---1---1-----1-3---1---|4----3----4----6----3----4------|
A|1-----1-4---1---1-----1-3---1---|2----1----2----4----1----2------|
D|1-----1-4---1---1-----1-3---1---|--------------------------------|
  1 e & a 2 e & a 3 e & a 4 e & a  1    e    a    3    e    a
  .     . .   .   .     . .   .



1st CHORUS (0:42):
  G#5
E|--------------------------------|--------------------------------|
B|--------------------------------|--------------------------------|
G|--------------------------------|--------------------------------|
D|6~------------------------------|(6)-----------------------------|
A|6~------------------------------|(6)-----------------------------|
D|6~------------------------------|(6)-----------------------------|
Rest for two more measures.

(0:48):
  G#m             C#m              F#              D#m
E|--------------------------------|--------------------------------|\\
B|9~------------------------------|--------7~--------------7~------| \\
G|----8~------8~------8~--9~--8~--|----6~------6~--8~--------------|  |x3
D|--------9~------6~--------------|4~------------------8~------8~--|  |
A|--------------------------------|--------------------------------| /
D|--------------------------------|--------------------------------|/
  1 e & a 2 e & a 3 e & a 4 e & a  1 e & a 2 e & a 3 e & a 4 e & a

(1:06):
  D#
E|--------------------------------|
B|--------------------------------|
G|--------------------------------|
D|--------------------random------|
A|--------------------slide-------|
D|--------------------------------|
  1 e & a 2 e & a 3 e & a 4 e & a

  B5   A#5  B5   C#5  A#5  B5      D#5
E|--------------------------------|--------------------------------|
B|--------------------------------|--------------------------------|
G|4----3----4----6----3----4------|.-------.-------.-------.-------|
D|4----3----4----6----3----4------|1-------1-------1-------1-------|
A|2----1----2----4----1----2------|1-------1-------1-------1-------|
D|--------------------------------|1-------1-------1-------1-------|
  1    e    a    3    e    a       1 e & a 2 e & a 3 e & a 4 e & a



2nd VERSE (1:11):

Repeat 1st VERSE.



2nd CHORUS (1:34):

Repeat 1st CHORUS. Stop at \"1:06\" and play the below instead (1:59).



BRIDGE (1:59):
Piano part:
  G#m             E                B               F#
E|--------------------------------|--------------------------------|
B|9~--9~--9~--9~--11~-11~-11~-11~-|12~-12~-12~-12~-7~--7~--7~--7~--|
G|8~--8~--8~--8~--10~-10~-10~-10~-|11~-11~-11~-11~-6~--6~--6~--6~--|Play one
D|--------------------------------|--------------------------------|octave higher
A|--------------------------------|--------------------------------|
D|--------------------------------|--------------------------------|
  1 e & a 2 e & a 3 e & a 4 e & a  1 e & a 2 e & a 3 e & a 4 e & a

  G#m             E                B               F#
E|--------------------------------|--------------------------------|
B|9~--9~--9~--9~--11~-11~-11~-11~-|12~-12~-12~-12~-7~--------------|
G|8~--8~--8~--8~--10~-10~-10~-10~-|11~-11~-11~-11~-6~--------------|
D|--------------------------------|--------------------------------|
A|--------------------------------|--------------------------------|
D|--------------------------------|--------------------------------|
  1 e & a 2 e & a 3 e & a 4 e & a  1 e & a 2 e & a 3 e & a 4 e & a
                                                               F#5
E|--------------------------------|--------------------------------|
B|--------------------------------|--------------------------------|
G|--------------------------------|--------------------------------|
D|--------------------------------|----------------------------4---|
A|--------------------------------|----------------------------4---|
D|--------------------------------|----------------------------4---|
  1 e & a 2 e & a 3 e & a 4 e & a  1 e & a 2 e & a 3 e & a 4 e & a



3rd VERSE (2:13):
  D#5         F#5 D#5         F5   D#5         F5  D#5 F#5 G#5 E
E|--------------------------------|--------------------------------|
B|--------------------------------|--------------------------------|
G|--------------------------------|----------------------------9---|
D|1-----------4---1-----------3---|1-----------3---1---4---6---x---|
A|1-----------4---1-----------3---|1-----------3---1---4---6---7---|
D|1---1-1-1-1-4---1---1-1-1-1-3---|1---1-1-1-1-3---1---4---6-------|
  1 e & a 2 e & a 3 e & a 4 e & a  1 e & a 2 e & a 3 e & a 4 e & a
      . . . .         . . . .          . . . .
  D#5         F#5 D#5         F5   D#5         F5  D#5 F#5 G#5 E
E|--------------------------------|--------------------------------|
B|--------------------------------|--------------------------------|
G|--------------------------------|----------------------------9---|
D|1-----------4---1-----------3---|1-----------3---1---4---6---x---|
A|1-----------4---1-----------3---|1-----------3---1---4---6---7---|
D|1---1-1-1-1-4---1---1-1-1-1-3---|1---1-1-1-1-3---1---4---6-------|
  1 e & a 2 e & a 3 e & a 4 e & a  1 e & a 2 e & a 3 e & a 4 e & a
      . . . .         . . . .          . . . .

(2:19):
  D#5
E|--------------------------------|--------------------------------|
B|--------------------------------|--------------------------------|
G|--------------------------------|--------------------------------|
D|1---1-1-1-1-1-1-1---------------|1---1-1-1-1-1-1-1---------------|
A|1---1-1-1-1-1-1-1---------------|1---1-1-1-1-1-1-1---------------|
D|1---1-1-1-1-1-1-1---------------|1---1-1-1-1-1-1-1---------------|
  1 e & a 2 e & a 3 e & a 4 e & a  1 e & a 2 e & a 3 e & a 4 e & a
      . . . . . .                      . . . . . .         N.C.
E|--------------------------------|--------------------random------|
B|--------------------------------|--------------------slide-by----|
G|--------------------------------|--------------------2nd-guitar--|
D|1---1-1-1-1-1-1-1---------------|1---1-1-1-1-1-1-1---------------|
A|1---1-1-1-1-1-1-1---------------|1---1-1-1-1-1-1-1-------1-------|
D|1---1-1-1-1-1-1-1---------------|1---1-1-1-1-1-1-1---------4-3-4-|    

Added On December 12th, 2013

SHARE

Comments

blog comments powered by Disqus

VERSIONS

ADVERTISEMENT