Sum 41 Tabs

Hell Song Solo

4 versions

TAB

            Hell Song Tab by Sum 41


Sum 41 -- Hell Song SoLo

Mr. 420 aka Justin Miller

if you have questions... or a correction... or you just want to
bitch at me, my email address is wagonwithsubs@hotmail.com

E----------------------------------------------------------------|
B---9--9--9--9--9--7------9--9--9--9--9--7------7---7---7--------|
G---------------------9---------------------9--------------------|
D----------------------------------------------------------------|
A----------------------------------------------------------------|
E----------------------------------------------------------------|

E----------------------------------------------------------------|
B----------------------------------------------------------------|
G---9--8--6--6--6/8--9--8--6---8--9--11--13\11--9\8--9--11-------|
D----------------------------------------------------------------|
A----------------------------------------------------------------|
E----------------------------------------------------------------|

E----------------------------------------------------------------|
B--------------------9---11-11--12-12--14-14-12-10---16-16-16-16-|
G---4b--6b--8b--9b-----------------------------------------------|
D----------------------------------------------------------------|
A----------------------------------------------------------------|
E----------------------------------------------------------------|

E-------------------------------------14------------------14-----|
B---16-14-12--16-16-14-12---12-14-16-----16-14-12--14-16------16-|
G----------------------------------------------------------------|
D----------------------------------------------------------------|
A----------------------------------------------------------------|
E----------------------------------------------------------------|

E----------------------------------------------------------------|
B---14-12----12-12--14--12---------------------------------------|
G---------------------------14--12--14--12-----------------------|
D-------------------------------------------14--12--14--12-------|
A----------------------------------------------------------------|
E----------------------------------------------------------------|

E----------------------------------------------------------------|
B--------------------------------9--7--9-------------------------|
G----------------------------------------------------------------|
D-----------14--12-----------------------------------------------|
A---14--12----------12--14~--------------------------------------|
E----------------------------------------------------------------|

and in the back ground... you play the first verse riff, which is

E---------------------------------------------------------------------|
B---------------------------------------------------------------------|
G------------------------------------4-4-4-4-4-4-4-4------------------|
D--6-6-6-6-6-6-6-6--2-2-2-2-2-2-2-2--4-4-4-4-4-4-4-4--4-4-4-4-4-4-4-4-|
A--6-6-6-6-6-6-6-6--2-2-2-2-2-2-2-2--2-2-2-2-2-2-2-2--4-4-4-4-4-4-4-4-|
E--4-4-4-4-4-4-4-4--0-0-0-0-0-0-0-0-------------------2-2-2-2-2-2-2-2-|

play that 4 times and finish with...

E----------------------------------------------------------------|
B-(9)-(7)-(9)----------------------------------------------------|
G----------------------------------------------------------------|
D--6---4---6-----------------------------------------------------|
A--6---4---6-----------------------------------------------------|
E--4---2---4-----------------------------------------------------|

the parenthesis are whats played in the solo, just for a guide


i hope this was useful for you... have fun playing the solo, if you
can figure it out by my guide... it isnt too hard, probably the easiest
solo i have ever played, listen to the song a bunch of times while
looking at my tab so you can figure out which note goes where in the solo,
otherwise you'll probably get confused..

Best Regards!

Justin Miller
Mr. 420    

Added On December 12th, 2013

SHARE

Comments

blog comments powered by Disqus

VERSIONS

ADVERTISEMENT