Sum 41 Tabs

Hell Song Solo

4 versions

TAB

            Hell Song Tab by Sum 41


	     Hell Song Solo - Sum 41 (Does This Look Infected?)
-------------------------------------------------------------------------------
By: Rocko
    website: http://www.geocities.com/dingusstudios
    e-mail: Freakazoid11588@hotmail.com

This took me a while to figure out, and I'm positive everything in this is correct
(I spent an hour trying to get it perfect) except for maybe the very last part
of the solo (I can't hear it that well).

"/": slide
"h": hammer on
"p": pull off

Part 1:

e|----------------------------------------------|
B|----------------------------------------------|
G|--11/13--13-13-13-13/11----11/13-13-13-13/11--|
D|----------------------------------------------|
A|----------------------------------------------|
E|----------------------------------------------|

Part 2: The 6-8-9-6-9-8-8-9-6 part is in triplets (you should be able to hear that) 

e|-------------------------------------------|
B|-------------------------------------------|
G|--11--11-11-11-9-8-6--6-6-8-9-6-9-8-8-9-6--|
D|-------------------------------------------|
A|-------------------------------------------|
E|-------------------------------------------|

Part 3:

e|---------------------------|
B|---------------------------|
G|--4--6--8--9-8--6-4--6--8--|
D|---------------------------|
A|---------------------------|
E|---------------------------|

Part 4: Hammer on as many times as needed.

e|-----------------------|
B|-----------------------|
G|--4h6--6h8--8h9--9h11--|
D|-----------------------|
A|-----------------------|
E|-----------------------|

Part 5:

e|---------------------------------|
B|---------------------------------|
G|--13--15-15--16-16--18-18-16-13--|
D|---------------------------------|
A|--11--13-13--14-14---------------|
E|---------------------------------|

Part 6: The 14-16-13-16 part is a 16th note

e|-------------------------------------------------|
B|--16--16-16-16--14----------16--16-14-12--14-12--|
G|-------------------16-13-16----------------------|
D|-------------------------------------------------|
A|-------------------------------------------------|
E|-------------------------------------------------|

Part 7: 

e|------14------------------14-----------|
B|--16-----16-14-12--12-16-----16-14-12--|
G|---------------------------------------|
D|---------------------------------------|
A|---------------------------------------|
E|---------------------------------------|

Part 8: The 15-13-11 part is a triplet

e|--------------------------------------------------|
B|--------------------------------------------------|
G|--16/15-15/16-15-13-11-13-11-9/8-6p4-6p4-6p4-4-4--|
D|--------------------------------------------------|
A|--------------------------------------------------|
E|--------------------------------------------------|

This is a tough and complicated solo, but with practice,
you should be able to master it.

Congratulations, you've completed the Hell Song solo.
Feel free to ask questions or send me comments, just e-mail them to me
(my e-mail is up there)
===============================================================================    

Added On December 12th, 2013

SHARE

Comments

blog comments powered by Disqus

VERSIONS

ADVERTISEMENT