Sum 41 Tabs

Hell Song Solo

4 versions

TAB

            Hell Song Tab by Sum 41


Solo for the hell song, this is the 100% perfect tab

|---------------------------------------
|9--9-9-9-7-9--9-9-9--7-7---------------
|-------------------------11-9-8-6-8-9-8
|---------------------------------------
|---------------------------------------
|---------------------------------------

|-------------------------------------------------------------
|----------------------------------------------------7-8-7-8-8
|6--8--9--11-9--6-8-9---------9-10-9-10--10-11-10-11----------
|---------------------7-8-7-8---------------------------------
|-------------------------------------------------------------
|-------------------------------------------------------------

|-------------------------------------------------------------------------
|9--11-11--12-12--14-14--16--16-16-16-14--------16--16-16-16-14-----------
|----------------------------------------16--13-----------------16--13--16
|-------------------------------------------------------------------------
|-------------------------------------------------------------------------
|-------------------------------------------------------------------------

|-----------------------------------------------------------------------
|16--18-16-14-----16--18-16-14------------------------------------------
|-------------16---------------16--16-16-16-15-13----13-----------------
|-------------------------------------------------16----14---13-14-13---
|---------------------------------------------------------------------14
|-----------------------------------------------------------------------

Rhoads    

Added On December 12th, 2013

SHARE

Comments

blog comments powered by Disqus

VERSIONS

ADVERTISEMENT