Sum 41 Tabs

King Of Contradiction

3 versions

TAB

            Song: King of Contradiction
Artist: Sum 41
Album: Underclass Hero

Wooooo! New song from new album!

~ Let ring
b Bend
* Palm mute
/ Pickslide
> Strum

Intro:

E|-------------------------------------|
B|-------------------------------------|
G|-0~----------------------------------|
D|-0~--------------/-------------------|
A|-0~--------------/-------------------|
E|-0~--------------/-------------------|

Verse:

E|-------------------------------------|
B|-------------------------------------|
G|---------8>-----7>-------------------|  X4
D|--5>-----8>-----7>-------------------|
A|--5>-----6>-----5>-------------------|
E|--3>---------------------------------|

Chorus:

E|-------------------------------------|
B|-------------------------------------|
G|--8>---------------------------------|
D|--8>-----8>-----10>----12>-----------| X3
A|--6>-----8>-----10>----12>-----------|
E|---------6>-----8>-----10>-----------|

E|-------------------------------------|
B|-------------------------------------|
G|--8>------------7>-------------------|
D|--8>-----8>-----7>-------------------| Play this after you play the part
A|--6>-----8>-----5>-------------------| above 3 times.
E|---------6>--------------------------|

*Stevo's Drum solo!*
*Play Verse*

Chorus:

E|-------------------------------------|
B|-------------------------------------|
G|--8>---------------------------------|
D|--8>-----8>-----10>----12>-----------| X3
A|--6>-----8>-----10>----12>-----------|
E|---------6>-----8>-----10>-----------|

Now we enter the bridge:

E|--------------------------------------------------------------|
B|--------------------------------------------------------------|
G|--8>------------7>-----8>---------------10>-----9>------8>----|
D|--8>-----8>-----7>-----8>------8>-------10>-----9>------8>----|
A|--6>-----8>-----5>-----6>------8>-------8>------7>------6>----|
E|---------6>--------------------6>-----------------------------|

Outro/Bridge part 2:

E|-----------------------------------------|
B|-----------------------------------------|
G|----------5>------8>---------------------|
D|--5>------5>------8>---------------------|
A|--5>------3>------6>---------------------|
E|--3>-------------------------------------|
    ^
 optional
 palm mute
 on this G

End:

E|--------------------------------------------|
B|--------------------------------------------|
G|--------------------------------------------|
D|--5--5--5--5--------------------------------|
A|--5--5--5--5--------------------------------|
E|--3--3--3--3--------------------------------|


Awesome Song i hope you enjoy!    

Added On December 16th, 2013

SHARE

Comments

blog comments powered by Disqus

VERSIONS

ADVERTISEMENT