Sum 41 Tabs

Skumfuk

1 versions

TAB

            -------------------------------------------------------------------------------
                             Skumfuk - Sum 41
-------------------------------------------------------------------------------
Tabbed by: mickey.duffy.31
E-mail: mickeyd29@comcast.net

This is a generally easy song to play. It's my first tab, so there may be a few flaws. This is how my band
and I play it, and it sounds right. Hope you guys like it.
Tuning: Standard

Intro

e|----------------------------------------------------------------------------------------|
B|----------------------------------------------------------------------------------------|
G|----------------------------------5-5-5-5-5-5-5-5---------------------------------------| 
D|-2-2-2-2-2-2-2-2-2-2-2-2-2-2-2-2--5-5-5-5-5-5-5-5--5-5-5-5--4-4-4-4- (x8)----2-2-2-2----|
A|-2-2-2-2-2-2-2-2-2-2-2-2-2-2-2-2--3-3-3-3-3-3-3-3--5-5-5-5--4-4-4-4----------2-2-2-2----|
E|-0-0-0-0-0-0-0-0-0-0-0-0-0-0-0-0-------------------3-3-3-3--2-2-2-2----------0-0-0-0----|
   * * * * * * * * * * * * * * * *  * * * * * * * *  * * * *  * * * * (palm-mute)

Verse 1

e|-------------------------------------------------------------------------------|
B|-------------------------------------------------------------------------------|
G|--9-9-9-x-x---------------------------8-8-8-x-x--------------------------------|
D|--9-9-9-x-x--10-10-10-x-x--9-9-9-x-x--8-8-8-x-x---(x10)------------------------|
A|--7-7-7-x-x--10-10-10-x-x--9-9-9-x-x--6-6-6-x-x--------------------------------|
E|--------------8--8--8-x-x--7-7-7-x-x-------------------------------------------|

Chorus (fast up-down strokes)

e|---------------------------------------------------------------------------|
B|---------------------------------------------------------------------------|
G|---------4---------------5-------------------------------------------------|
D|-5-------4-(x8)--2-------5-(x8)----(x4)------------------------------------|
A|-5-(x8)--2-------2-(x8)--3-------------------------------------------------|
E|-3---------------0---------------------------------------------------------|

Verse 2

e|------------------------------------------------------------------------------------|
B|------------------------------------------------------------------------------------|
G|-9-9-9-9-9-9-9-9--4-4-4-4-4-4-4-4--5-5-5-5-5-5-5-5----------------------------------|
D|-x-x-x-x-x-x-x-x--x-x-x-x-x-x-x-x--5-5-5-5-5-5-5-5--5-5-5-5-5-5-5-5---(x2)----------|
A|-7-7-7-7-7-7-7-7--2-2-2-2-2-2-2-2--3-3-3-3-3-3-3-3--5-5-5-5-5-5-5-5-----------------|
E|----------------------------------------------------3-3-3-3-3-3-3-3-----------------|

e|---------------------------------------------------------------------------|
B|---------------------------------------------------------------------------|
G|-9-9-9-9--4-4-4-4--5-5-5-5--5-5-5-5----------------------------------------|
D|-9-9-9-9--4-4-4-4--5-5-5-5--5-5-5-5--5-5-5-5-5-5--4-4---(x2)---------------|
A|-7-7-7-7--2-2-2-2--3-3-3-3--3-3-3-3--5-5-5-5-5-5--4-4----------------------|
E|-------------------------------------3-3-3-3-3-3--2-2----------------------|

Repeat Chorus

Piano outro chords

e|-0----0----0----3---|
B|-0----0----1----3---|
G|-0----4----0----0---|
D|-2----4----2----0---|
A|-2----2----3----2---|
E|-0----0----0----3---|
   Em   B    C    G


Lyrics:
Take the pictures off the wall
Erase the thoughts, forget them all
The choice is yours to save yourself
Or in the hands of someone else

Ooh, Ooooh, Ooh, Ooh x4

Broken thoughts and alibis
Conscience disappears in time
A voice is all that I can show
That all that I have is a soul

Ooh, Ooooh, Ooh, Ooh x4

You're a setup to fail
You're a deatbeat on parade
With a foot in the gutter 
And another in the grave
You've cooked your silver spoon so black
So die

So what can I say
When it's obvious you would end up this way
When you live amongst the dead

Well best of luck
As the one and only resident skumfuk
A victim or just a tragedy

I hear you talk but I don't hear you speak
You don't make sense, your mind is incomplete

I can't believe all the things that you say
You just can't get enough
We'll all be waiting here just for the day
That your time is up

So what can I say
When it's obvious you would end up this way
When you live amongst the dead

Well best of luck
As the one and only resident skumfuk
A victim or just a tragedy

All that I need is time for me to breathe
Dreams, little dreams, that only I believe
Now that I see beyond the light
I know I'll be, I'll be alright


Skumfuk - Screaming Bloody Murder (Track 3) (2011)    

Added On August 7th, 2014

SHARE

Comments

blog comments powered by Disqus

ADVERTISEMENT