Sum 41 Tabs

Some Say

3 versions

TAB

            Okay, So apparently it's tuned Flat, I don't know, i don't do it tuned Flat. Standard 
is alright. And this is my First Tab so Everything is welcome. I got Some of the rhythm 
from Oscar77 or whatever. Anywho, Enjoy

-------------------------------------------------------------------------------
			     Sum say - Sum 41
-------------------------------------------------------------------------------
Tabbed by:The_Dyer_maker
Email:Dyer_maker41@hotmail.com

Tuning: Standard

Verse- Acoustic (Acoustic Simulator)
e|2-----------------------------------|
B|3-----------------------------------|
G|4-X5--7-X5--------------------------|
D|4-----7------2-----5----------------|
A|2-----5------2-X5--5-X5-------------|
E|-------------0-----3----------------|

Chorus- 2 Distorted Guitars (Deryk and Dave)
e|------------------------------------------------------------------|
B|------------------------------------------------------------------|
G|4------------5-------------------------5--------------------------|
D|4-X4--5------5-X4---5------2-----5-----5-----5-----2-----5--------|
A|2-----5-X4---7------5-X4---2-X4--5-X4--7-x4--5-X4--2-X4--5-X4-----|
E|------3-------------7------0-----3-----------7-----0-----3--------|

Verse Again- Acoustic (Acoustic Simulator)
e|2-----------------------------------|
B|3-----------------------------------|
G|4-X5--7-X5--------------------------|Play the last chord a few More times
D|4-----7------2-----5----------------|
A|2-----5------2-X5--5-X5-------------|
E|-------------0-----3----------------|

Chorus- 2 Distorted Guitars (Deryk and Dave)
e|------------------------------------------------------------------|
B|------------------------------------------------------------------|
G|4------------5-------------------------5--------------------------|
D|4-X4--5------5-X4---5------2-----5-----5-----5-----2-----5--------|
A|2-----5-X4---7------5-X4---2-X4--5-X4--7-x4--5-X4--2-X4--5-X4-----|
E|------3-------------7------0-----3-----------7-----0-----3--------|

Solo- Dave
e|---------------------------------------------------------------------------|
B|---------------------------------------------------------------------------|
G|77777/14~~~--11/12/11/12/11-----9999-11-11-11--11----12121212-11/12/11-----|
D|xxxxx--------xxxxxxxxxxx--------xxxx-----------------xxxxxxxx-xxxxxxxx-----|X2
A|55555/12~~~--9/10/9/10/9--------7777-9---9--9--9-----10101010-9-/10/9------|
E|---------------------------------------------------------------------------|
                                     ^sorry if that looks confusing
e|-----------------------------------------------------------|
B|-----------------------------------------------------------|
G|777-999-111111/12/11----11/12/11-9999-7777-9999--11/12/11--|
D|xxx-xxx-xxxxxxxxxxxx----xxxxxxxx-xxxx-xxxx-xxxx--xxxxxxxx--|
A|555-777--9-9-9/10/-9-----9/10/-9-7777-5555-7777---9/10/9---|
E|-----------------------------------------------------------|
End with
e|-------------------|
B|-------------------|
G|77/9--7~~~~~-------|
D|xxxx--x------------|
A|55/7--5~~~~~-------|
E|-------------------|

Verse Again- Acoustic (Acoustic Simulator)
e|2-----------------------------------|
B|3-----------------------------------|
G|4-X5--7-X5--------------------------|
D|4-----7------2-----5----------------|
A|2-----5------2-X5--5-X5-------------|
E|-------------0-----3----------------|

Chorus- 2 Distorted Guitars (Deryk and Dave)
e|---------------------------------------|
B|---------------------------------------|
G|4------------5-------------------------|
D|4-X4--5------5-X4---5------2-----5-----| X2
A|2-----5-X4---7------5-X4---2-X4--5-X4--|
E|------3-------------7------0-----3-----|

THEN this
e|----------------------------|
B|----------------------------|
G|-5--------------------------|
D|-5-----5-----2-----5--------|
A|-7-x4--5-X4--2-X4--5-X4-----|
E|-------7-----0-----3--------|

And end with This... When it's like "Believe me it's Alright"
e|-------------------------|
B|-------------------------|
G|4------------5-----------|
D|4-X4--5------5-X4---5----|
A|2-----5-X4---7------5-X4-|
E|------3-------------7----|

| /  slide up
| \  slide down
| h  hammer-on
| p  pull-off
| ~  vibrato
| +  harmonic
| x  Mute note
===============================================================================
Questions or Comments Email meeee    

Added On December 16th, 2013

SHARE

Comments

blog comments powered by Disqus

VERSIONS

ADVERTISEMENT