Sum 41 Tabs

Some Say Solo

1 versions

TAB

            -------------------------------------------------------------------------------
			     "Some Say" - Sum 41
-------------------------------------------------------------------------------
Tabbed by: [travis]
Email: syn_gates_punk14@msn.com

Tuning: Eb Ab Db Gb Bb eb (low to high)

This is the solo from "Some Say" by Sum 41.
Guitar 1 uses some delay for the first two bars.

\ /= slides

Guitar 1
eb|--------------------------------------------------------------------------------------|
Bb|--------------------------------------------------------------------------------------|
Gb|--------7--/14--(14)\11/12--11/12--11---9-9-9-9-11-11-11-11--12-12-12-12--11/12-11--9-|
Db|--------x----x--------x--x---x--x---x---x-x-x-x--x--x--x--x---x--x--x--x---x--x--x--x-|
Ab|--------5--/12--(12)\-9/10---9/10---9---7-7-7-7--9--9--9--9--10-10-10-10---9/10--9--7-|
Eb|-3/15\--------------------------------------------------------------------------------|

Guitar 1:
eb|------------------------------------------------------------------------------------------|
Bb|------------------------------------------------------------------------------------------|
Gb|-7-(7)/14--(14)\11/12--11/12--11--9--9--9--9--11--11--11--11--12--12--12--12-11/12--11--9-|
Db|-x-(-)--x--(--)\-x--x---x--x---x--x--x--x--x---x---x---x---x---x---x---x---x--x--x---x--x-|
Ab|-5-(5)/12--(12)\-9/10---9/10---9--7--7--7--7---9---9---9---9--10--10--10--10--9/10---9--7-|
Eb|------------------------------------------------------------------------------------------|

Guitar 1:
eb|----------------------------------------------------------------------------------------------------|
Bb|----------------------------------------------------------------------------------------------------|
Gb|-7-7-7-7-9-9-9--9-9-11--11-11-11--12-12-11-11--12--11-11--9-9-9-9-9-7-7-7-7-7-9-9-9-9-9-11/12--11\9-|
Db|-x-x-x-x-x-x-x--x-x--x---x--x--x---x--x--x--x---x---x--x--x-x-x-x-x-x-x-x-x-x-x-x-x-x-x--x--x---x-x-|
Ab|-5-5-5-5-7-7-7--7-7--9---9--9--9--10-10--9--9--10---9--9--7-7-7-7-7-5-5-5-5-5-7-7-7-7-7--9/10---9\7-|
Eb|----------------------------------------------------------------------------------------------------|

Guitar 1:
eb|---------------------------------------------------------------------------------------------------|
Bb|---------------------------------------------------------------------------------------------------|
Gb|-7-7-7-7-9-9-9--9-9-7--11-11-11-12-12-11-11-11-12-11-11--9-9-9-9-9-7-7-7-7-7-9-9-9-9-9-11/12--11\9-|
Db|-x-x-x-x-x-x-x--x-x-x---x--x--x--x--x--x--x--x--x--x--x--x-x-x-x-x-x-x-x-x-x-x-x-x-x-x--x--x---x-x-|
Ab|-5-5-5-5-7-7-7--7-7-9---9--9--9-10-10--9--9--9-10--9--9--7-7-7-7-7-5-5-5-5-5-7-7-7-7-7--9/10---9\7-|
Eb|---------------------------------------------------------------------------------------------------|

Guitar 1:
eb|---------------------------------------------------------------------------|
Bb|---------------------------------------------------------------------------|
Gb|-7----7----7--7/9---7~-----------------------------------------------------|
Db|-x----x----x--x-x---x------------------------------------------------------|
Ab|-5----5----5--5/7---5~-----------------------------------------------------|
Eb|---------------------------------------------------------------------------|


There you have it. Rate it.    

Added On December 16th, 2013

SHARE

Comments

blog comments powered by Disqus

ADVERTISEMENT